Oops, an error
Loading. Please wait.

Ahora Tab

8 views 1 this week
no commentswrite comment
1 2 3 4 5
3 more votes to show rating
add to favorites
launch autoscroll
font size
0
reset
how to read this tab
guitar tuner
×
Best way to learn
"Ahora"
Autoscroll
slow
fast
+/-
esc
set tempo
stop
Intro

|----------------------------------------|
|----------12-12-12-12-12----------------|
|-------12----------------14-12-12-14-14-|
|-12-14----------------------------------|
|----------------------------------------|
|----------------------------------------|

|--------------------------------------|
|--------------------------------------|
|-------12-14b(16)(16)(16)b14-12-14-14-|
|-12-14--------------------------------|
|--------------------------------------|
|--------------------------------------|

|----------------------------------------|
|----------------------------------------|
|-------12-14-14-14-14-14p12-12-12-14-14-|
|-12-14----------------------------------|
|----------------------------------------|
|----------------------------------------|

|-----------------------------------------|
|-----------------------------------------|
|-------12-14b(16)14b(16)14b(16)b14-12-14-|
|-12-14-----------------------------------|
|-----------------------------------------|
|-----------------------------------------|

|---------------------|
|---------15-12-------|
|-14b(16)-------14-12-|<- esta nota SOL engancha
|---------------------|   con el Acrode de la letra
|---------------------|
|---------------------|


G
Ahora que estoy algo distante
            D
ahora que pienso solo en vos
              Am              F
ahora que empiezo un camino nuevo
            C                   G
ahora que vuelvo a tomar el control
    G
Necesito que me digas cuando
            D
fue que perdí mi rumbo y dirección
      Am               F                  aca se puede usar
ya no vivo solo de recuerdos              (en los dos D)
        C                      D     D <- una variacion del D
ya no espero que algo venga de vos        que es el D*
                                          (mirar en Acordes)

C               G
  Ya caminé por estas calles
C               Em
  me refugié en cada rincón                   [Dsus4-D-Dsus2-D]
C                  G                             |-3-2-0-2-|
  yo se que estuve aquí antes                    |-3-3-3-3-|
      F    C        D    (Dsus4-D-Dsus2-D)       |-2-2-2-2-|
  cantando esta canción                          |-0-0-0-0-|
                                                 |---------|
                                                 |---------|

RIFF (lo usa en los 2 primeros versos del
      Estribillo, sino usen los acordes)
|-----------------------------|
|-----------------------------|
|-----------------------------|
|-----------2-0---------------|
|-----0-2-3-----3--2-3-0--0-0-|
|-3-3-------------------------|

|------------------------|
|------------------------|
|------------------------|
|-----------2-0--------0-|
|-----0-2-3-----3--2-3---|
|-3-3--------------------|


  G           D         C        Am
Ahora que ya nada es lo mismo
  G            D    Am         D
ahora que la herida se cerró
  G           B7              C
ahora que las noches son tan frías
Em         F     C     D
nena ya no tengo tu calor


(Repite Intro)


Ahora que estoy acostumbrado
a llevar el traje del perdedor
con unos gramos de angustia en mis manos
voy a alejarme pensando en vos
Necesito que me digas cuando fue que perdí
mi rumbo y dirección
ya no vivo solo de recuerdos
ya no espero que algo venga de vos

Ya caminé por estas calles
me refugié en cada rincón
yo se que estuve aquí antes
cantando esta canción

Ahora que ya nada es lo mismo
ahora que la herida se cerró
ahora que las noches son tan frías
nena ya no tengo tu calor


RIFF para entrar al Solo

Alto Solo de Armónica:
     |G  |D  |Am F|C D|D  | <- aca tambien se puede usar el D*

Ya caminé por estas calles
me refugié en cada rincón
yo se que estuve aquí antes
cantando esta canción

Ahora que ya nada es lo mismo
ahora que la herida se cerró
ahora que las noches son tan frías
nena ya no tengo tu calor


  G           D         C        Am
Ahora que ya nada es lo mismo
  G            D    Am         D
ahora que la herida se cerró
  G           B7              C       C
ahora que las noches son tan frías
Em         F       C
nena ya no tengo...
Em         F       C
nena ya no tengo...
Em         F     C    RIFF x2
nena ya no tengo tu calor


G
------------------------------------------------------------------
Acordes
   G     D    Am     F     C    Em     D*
|--3--|--2--|--0--|--1--|--0--|--0--|--0--|
|--0--|--3--|--1--|--1--|--1--|--0--|--3--|
|--0--|--2--|--2--|--2--|--0--|--0--|--0--|
|--0--|--0--|--2--|--3--|--2--|--2--|--4--|
|--2--|-----|--0--|--3--|--3--|--2--|--5--|
|--3--|--X--|-----|--1--|-----|--0--|-----|
------------------------------------------------------------------

Bueno gente... desde Rosario... Para los que lo quieran...
Mr. Mojo muy buena banda...
Fabricio... un saludo...
Bonzo... los más de Rosario...
Espero que les vaya más que bien...

Franco 73
Suggest correction
Give kudos to tab author, rate the tab!
1 2 3 4 5
comments
print report bad tab
guest
You may want to rate the tab now too:
select rating
Wanna post a correction for this tab? Suggest correction