Oops, an error
Loading. Please wait.

Bajo Este Cielo Tab

7 views 1 this week
no commentswrite comment
1 2 3 4 5
3 more votes to show rating
add to favorites
launch autoscroll
font size
0
reset
how to read this tab
guitar tuner
Autoscroll
slow
fast
+/-
esc
set tempo
stop
Help us to improve Ultimate-Guitar.com Take our survey!
×
Bajo este cielo - Mr. Mojo y Fabricio Rodríguez

Capo en el 4to casillero

Intro:


Em
E|---------
B|---------
G|---0h2h0-
D|--0------
A|---------
E|-0-------

G
E|---------
B|---------
G|---0h2h0-
D|--0------
A|---------
E|-3-------

Am
E|---------
B|---------
G|---0h2h0-
D|--2------
A|-0-------
E|---------

C
E|---------
B|---------
G|---0h2h0-
D|--2------
A|-3-------
E|---------


Letra: igual que Intro

No existe nada bajo este cielo,
la espera infinita de saber que me voy.
Con la paciencia de un río tranquilo,
mi blanda memoria, ya todo lo olvidó.

Intermedio: (Em-G-Am-C)x2
E|----------------------------------------------------------------------------|
B|---------12--12/14~/12/14-14br/12/14/12~-------12--12/14~/12/14-14br14b/19~-|
G|---/13~----13----------------------------/13~----13-------------------------|
D|----------------------------------------------------------------------------|
A|----------------------------------------------------------------------------|
E|----------------------------------------------------------------------------|

Todo cambia y yo soy el mismo,
falsas caricias que calman el dolor.
Otra mañana gris en mi ventana,
perfume de un vino viejo en el corazón.

Puente:
C  C/B  Am            G       D
Huu-uuu-uuu todo se parece a vos,
C  C/B  Am                  G       D
Huu-uuu-uuu y ese es mi consuelo.

Estribillo:
Em          G
Esto no es lo que soñé,
Am                C
toda una vida desperdiciada.
Em             G          Am        C
No verás mis brazos caer, esta vez.
Em         G
Esto no es lo que soñé,
Am                C
toda una vida así malgastada
Em           G
las cosas no resultaron
Am          C
lo que esperaba.

Intermedio: (Em-G-Am-C)x2
E|----------------------------------------------------------------------------|
B|---------12--12/14~/12/14-14br/12/14/12~-------12--12/14~/12/14-14br14b/19~-|
G|---/13~----13----------------------------/13~----13-------------------------|
D|----------------------------------------------------------------------------|
A|----------------------------------------------------------------------------|
E|----------------------------------------------------------------------------|

Letra:
Un corazón, preso en la mente
esperando que vengas por mi.
Es que hoy me siento, eternamente solo.
Y en un sueño te veo partir.

Estribillo:
Esto no es lo que soñé,
toda una vida despercidada.
No verás mis brazos caer, esta vez.
Esto no es lo que soñé,
toda una vida así malgastada
las cosas no resultaron
lo que esperaba.

Punteo: (Em-G-D-Em) x2
E|----------------------------------|
B|-16~/14~-16/12/9~-/12~/14~-11br/9-|
G|----------------------------------|X2
D|----------------------------------|X2
A|----------------------------------|
E|----------------------------------|

Puente:
Huu-uuu-uuu todo se parece a vos,
Huu-uuu-uuu y ese es mi consuelo.

Estribillo:
Esto no es lo que soñé,
Toda una vida desperdiciada.
No verás mis brazos caer, esta vez.
Esto no es lo que soñé,
toda una vida así malgastada
las cosas no resultaron
lo que esperaba.

Final:

1) Final de piano: (Em-G-D-Em) x2

E|-----------|
B|-----------|
G|---0-0-----|X2
D|-2--2--0-2-|X2
A|-----------|
E|-----------|

2) Guitarra al doble de velocidad (Em-G-D-Em) x2

3) Guitarra Atenuada al doble de velocidad (Em-G-D-Em) x2
Suggest correction
Give kudos to tab author, rate the tab!
1 2 3 4 5
comments
print report bad tab
guest
You may want to rate the tab now too:
select rating
Wanna post a correction for this tab? Suggest correction