Oops, an error
Loading. Please wait.

Waves Chords

version 1
version 1

Whole song

Interactive

Video

229,375 views 399 this week
7 commentsread comments
1 2 3 4 5
accurate
x 15
add to favorites
launch autoscroll
font size
0
reset
transpose
0
reset
display chords
guitar tuner
Tab Pro tools
  • play this tab
  • loop segment
  • change instrument
  • show fretboard
  • metronome
×
Best way to learn
"Waves"
Autoscroll
slow
fast
+/-
esc
set tempo
stop
Contributor
Difficulty
novice
Mr Probz - Waves

Can't find tabs anywhere, so here it goes, my 2nd tab.
The words and chords in the song don't follow nicely, so it's pretty hard to sing 
along. The tab's pretty accuarate, though. Enjoy!

Tabbed by: worm_xxl

Standard tuning

Riff played practically during whole song:

   Fm      D#      Cm     C#
e|--------------------------------|
B|------9--------------4----------|
G|-------------8--------------6---|
D|---10------8-------5------6-----|
A|-8-------6-------3------4-------|
E|--------------------------------|

Intro
   Fm      D#       Cm      C#   x4

Fm     D#             Cm      C#
    My face above the water
Fm     D#                          Cm      C# 
    My feet can't touch the ground, touch the ground. And it feels like,
Fm     D#             Cm            C#
       I can see the sands on the horizon
     Fm   D#                Cm         C#
Everytime you are not around       I'm slowly drifting 
Fm     D#            Cm      C#
    Away, drifting away
              Fm      D#             Cm      C#
Wave after wave         Wave after wave  I'm slowly drifting

Fm      D#            Cm        C#               F
          drifting away  And it feels like I'm drowning
D#                      Cm      C#                   Fm      D#    Cm    C#
Pulling against the stream      Pulling against the stream
 
Intermezzo
   Fm      D#       Cm      C#   x4

Fm      D#                      Cm      C#
        I wish I could make it easy, 
Fm      D#        Cm    C#
         easy to love me, love me
Fm             D#              Cm             C#
  But still I reach, I find a way, I'm stuck here in between,
    Fm               D#            Cm       C#
I'm looking for the right words to say  I'm slowly drifting
Fm     D#            Cm      C#
         drifting away
              Fm      D#             Cm      C#
Wave after wave         Wave after wave  I'm slowly drifting

Fm      D#            Cm        C#               F
          drifting away  And it feels like I'm drowning
D#                      Cm      C#                   Fm      D#    Cm    C#
Pulling against the stream      Pulling against the stream

Outro 
   Fm      D#       Cm      C#   x6


Please correct/rate/comment. Thank you!
Email: worm_xxl@hotmail.com
comments
print report bad tab
7 comments total. Showing first comments.
0 reply
dylanvdbergg17 wrote on June 3 2013, 11:14 am

e|----------------------------------|
B|------9---------------------------|
G|-------------8---------4-----6-|
D|---10------8--------5------6----|
A|-8-------6--------3-------4-------|
E|----------------------------------|

het laatste stukje moet zoals ik het hierboven heb verbeterd :)

+3 reply
dylanvdbergg17 wrote on June 3 2013, 12:21 pm

dylanvdbergg17 wrote on June 3 2013, 11:14 am
e|----------------------------------|
B|------9---------------------------|
G|-------------8---------4-----6-|
D|---10------8--------5------6----|
A|-8-------6--------3-------4-------|
E|----------------------------------|

Excuus het moet zo..

dylanvdbergg17 wrote on June 3 2013, 11:14 am
e|----------------------------------|
B|------9----------------4----------|
G|-------------8--------------6-|
D|---10------8--------5------6----|
A|-8-------6--------3-------4-------|
E|----------------------------------|

0 reply
Woudjee wrote on June 4 2013, 02:53 pm

Ik heb nog een andere makkelijkere manier gevonden, maar die van jou is ook goed.

I want to post or [tab]
guest
You may want to rate the tab now too:
select rating
Please do not post tabs as comments. Select "correction" instead!