Oops, an error
Loading. Please wait.

Waves tab

version 3
version 3

Whole song

Interactive

Video

27,435 views 15 this week
4 commentsread comments
1 2 3 4 5
x 28
add to favorites
×
Save as Personal and add changes to this tab that will be seen only by you. Learn more ›
×
You can save this tab as Personal to edit and correct it or add notes. All changes will be seen only by you. Learn more »
launch autoscroll
font size
0
reset
how to read this tab
guitar tuner
edit
Autoscroll
slow
fast
+/-
esc
set tempo
stop
Making it easier with the capo.

So, capo on 3rd fret, the tabs are relative to the capo.
Same for the chords above the tab, they are relative to the capo.

     Dm         C             Am         Bb
e|--------1--------------|--------------------------|
B|-----------------1-----|---------1----------------|
G|-----2--------0--------|-------------------3------|
D|--0--------------------|------2---------3---------|
A|-----------3-----------|---0---------1------------|
E|-----------------------|--------------------------|

Play this throughout the entire song.

Enjoy!

            
            
Suggest correction
Creating personal tab
Creating personal tab
You can edit any tab online and save it as your Personal.

You can edit, replace or remove any tab part or add personal notes – all changes will be seen only by you.

Personal tabs can be accessed anytime from any device, even offline.
Learn more »
comments
print report bad tab
4 comments total. Showing first comments.
+2 reply
EvertorN 91 Jul 24, 2013 09:44 AM

I think the second note should be played differently, the 2nd fret rather than the third:

Dm C Am Bb
e--------1--------------|--------------------------|
B-----------------1-----|---------1----------------|
G-----2--------0--------|-------------------3------|
D--0--------------------|------2---------3---------|
A-----------3-----------|---0---------1------------|
E-----------------------|--------------------------|

0 reply
Darkreaperlord 13 Aug 24, 2015 05:27 AM

Really good Tab!

guest
You may want to rate the tab now too:
select rating
Wanna post a correction for this tab? Suggest correction