Oops, an error
Loading. Please wait.

Sleeping Dogs tab

by MrNorth
682 views 1 this week
1 commentread comment
1 2 3 4 5
2 more votes to show rating
add to favorites
×
Save as Personal and add changes to this tab that will be seen only by you. Learn more ›
×
You can save this tab as Personal to edit and correct it or add notes. All changes will be seen only by you. Learn more »
launch autoscroll
font size
0
reset
how to read this tab
guitar tuner
edit
Autoscroll
slow
fast
+/-
esc
set tempo
stop
So this isn't completely correct but it's the best I can do by just listening to the 
Enjoy!

Sleeping Dogs by MrNorth

Intro/Verse (I):

|-----------------------------------------------|
|-----------10--12------------------10----------|
|------9-----------------------10---------------|
|--7----------------------7---------------------|
|---------------------8-------------------------|
|-----------------------------------------------|

Pre-Chorus (II):

|---------2-------------2--------------------1---|
|------------3--------------3--------------------|
|-----2------------2--------------------2--------|
|--0---------------------------------3-----------|
|----------------------------------3-------------|
|--------------------------------1---------------|

Chorus (III):

|-----------------------------------------------------------|
|------------1-----------1------------------0----------0----|
|----------------0----------0------------------0----------0-|
|------2--------------------------------0-------------------|
|--3-----------------3--------------2--------------2--------|
|-----------------------------------------------------------|

|----------------------------------------------------1------|
|----------3------------3------------------------3----------|
|-------------3------------3------------------0-------------|
|------0-------------------------------3--------------------|
|--1----------------1--------------3------------------------|
|------------------------------1----------------------------|

|-----------------------------------------------------------|
|------------1-----------1------------------0----------0----|
|----------------0----------0------------------0----------0-|
|------2--------------------------------0-------------------|
|--3-----------------3--------------2--------------2--------|
|-----------------------------------------------------------|

|----------------------------------1-(F)----1-(Dm)---1-(F)----|
|----------3------------3----------1--------3--------1--------|
|-------------3------------3-------2--------2--------2--------|
|------0---------------------------3--------0--------3--------|
|--1----------------1--------------3--------0--------3--------|
|----------------------------------1--------0--------1--------|


Order:

(I) x3
Who pulled this shade down on my life?
If I don't think straight, don't mean it's a lie.
If I had my way we'd be
(II)
sleeping now.
(I) x3
How much more do we need to talk
before the last hope gets up and walks?
If I had my way we'd be
(II)
dreaming now.

(III)
Honey they're sleeping dogs,
just let them lie 'cause you don't know where they've been last night.
Why would you wanna cry
and ruin those eyes?
Is it something you were born for?
You're a port in any storm or...

(I) x3
It takes all my strength
to look and not touch
when one or two words
are then words to much.
If I keep up my ways
you'll be
(II)
leaving soon.

(III)
Honey they're sleeping dogs,
just let them lie 'cause you don't know where they've been last night.
Why would you wanna cry
and ruin those eyes?
Is it something you were born for?
You're a port in any storm.
Or was it something to get torn for?
You're a port in any storm.

-ash

            
            
Suggest correction
Creating personal tab
Creating personal tab
You can edit any tab online and save it as your Personal.

You can edit, replace or remove any tab part or add personal notes – all changes will be seen only by you.

Personal tabs can be accessed anytime from any device, even offline.
Learn more »
Give kudos to tab author, rate the tab!
1 2 3 4 5
comments
print report bad tab
1 comment total.
0 reply
Shwax 256 Aug 09, 2009 03:00 PM

great tab. Only suggestion I would make so it's slightly easier is in the intro to play the 7th fret on the high e instead of 12th on the B. Like this:

|----------------7------------------------------|
|-----------10----------------------10----------|
|------9-----------------------10---------------|
|--7----------------------7---------------------|
|---------------------8-------------------------|
|-----------------------------------------------|

guest
Wanna post a correction for this tab? Suggest correction