Oops, an error
Loading. Please wait.

La Bass Tab

159 views 3 this week
no commentswrite comment
1 2 3 4 5
please rate
add to favorites
launch autoscroll
font size
0
reset
guitar tuner
Tab Pro tools
  • play this tab
  • loop segment
  • change instrument
  • show fretboard
  • metronome
Autoscroll
slow
fast
+/-
esc
set tempo
stop
-------------------------------------------------------------------------------
                             La - MU330
-------------------------------------------------------------------------------
Tabbed by: 
E-mail: 

Tuning:EADG

Main riff 
G|---------------------------------------------------------------------------|
D|--------------------6-2-----------------------4-7-4-7----------------------|
A|-------2-4-2-4-4-44-----5-4------2-5-2-5-5-55------------------------------|
E|--5-55----------------------3-33-------------------------------------------|

Fill
G|---------------------------------------------------------------------------|
D|-------------------6-2-------5-4-2-----------------------------------------|
A|-------2-4-24-4-44-----5-4---------5-4-2-0-5-4-2-0-------------------------|
E|--5-55---------------------3-----------------------5-4-2-4-5---------------|


| /  slide up
| \  slide down
| h  hammer-on
| p  pull-off
| ~  vibrato
| +  harmonic
| x  Mute note
===============================================================================
comments
We did not receive enough feedback on this tab! Please rate:
print report bad tab
1 2 3 4 5
I want to post or [tab]
guest
You may want to rate the tab now too:
select rating
Please do not post tabs as comments. Select "correction" instead!