Oops, an error
Loading. Please wait.

Tune Me Out Bass Tab

265 views 1 this week
no commentswrite comment
1 2 3 4 5
3 more votes to show rating
add to favorites
launch autoscroll
font size
0
reset
guitar tuner
Autoscroll
slow
fast
+/-
esc
set tempo
stop
Help us to improve Ultimate-Guitar.com Take our survey!
×
Author
Difficulty
novice
-------------------------------------------------------------------------------
                        TUNE ME OUT - MU330
-------------------------------------------------------------------------------
Tabbed by: Ska-Man
E-mail: yes i have one, no i don't want to put it up

Tuning:EADG


INTRO :

G|-------------------------|
D|-------------------------|
A|-0000-5555-4444-2222-----|   ( 4x )
E|-------------------------|


During Lead:

G|-----------------------------------------------------------------------------|
D|-----------------------------------------------------------------------------|
A|-0-0-0-0-0-0-0-0-0-0-0-0-0-0-0-0-0-0-0-0-0-0-0-0-0-0-0-0-0-------------------|
E|-----------------------------------------------------------------------------|

G|-------------------------------------------------|
D|-------------------------------------------------|
A|-0-000-000-000-00-5-4-2------0---0---------------|
E|--------------------------5-2----4---------------|


When the chords get all Skanked Up:

G|---------------------------------|
D|---------------------------------|
A|-0-000-000-00-5-4-2-----0---0----| ( 7x )
E|---------------------5-2---4-----|


Pre-Chorus?:

G|-----------------------------------------------------------------------------|
D|-----------------------------------------------------------------------------|
A|------7777------7777------7777------------------22---------------------------|
E|-0000------0000------0000-------22222222-44-55-------------------------------|


Bridge-like Part:

G|--------------|
D|--------------|
A|-0~--5--------| ( 2x )
E|--------0-----|



lather, rinse, repeat. song's pretty simple, but awesome.

remember, Gerry is the skaest thing since ska came to skatown.

-thank
Suggest correction
Give kudos to tab author, rate the tab!
1 2 3 4 5
comments
print report bad tab
guest
You may want to rate the tab now too:
select rating
Wanna post a correction for this tab? Suggest correction