Oops, an error
Loading. Please wait.

Lonely This Christmas Bass Tab

version 2
version 2

Whole song

by Mud
43 views 12 this week
1 commentread comment
1 2 3 4 5
3 more votes to show rating
add to favorites
launch autoscroll
font size
0
reset
guitar tuner
Autoscroll
slow
fast
+/-
esc
set tempo
stop
Help us to improve Ultimate-Guitar.com Take our survey!
×
Author
Difficulty
Mud - Lonely this Christmas  
C – Am – F - G

Intro: 00:01 “pump pump pump” x2
G|-----------|-----------------------|-
D|-----------|-----------------------|-
A|---0-2-3~~-|-2-0~---3-0------------|- x2
E|-3---------|------------3-1~--5-3~-|-

Verse1: 00:20 “pump pump pump” x2
G|-----------|-----------------------|-
D|-5---------|--------0-2-3~---3-5~~-|-
A|---0-2-3~~-|-0-3~~-----------------|- x2
E|-----------|-----------------------|-
C        Am        F                G
Try to imagine a house that’s not a home
C          Am           F           G
And try to imagine a Christmas all alone
G|-----------|-----------------------|-
D|-----------|-----------------------|-
A|---0-2-3~~-|-2-0~---3-0------------|- x2
E|-3---------|------------3-1~--5-3~-|-
C                              Am
That’s where I'll be since you left me
     F                    G
My tears could melt the snow
C                      Am
What can I do? Without you
F                    G
I’ve got no place to go

Chorus1: 00:48 
G|-----------|-----------------------|-
D|-----------|-----------------------|-
A|---0-2-3~~-|-2-0~---3-0------------|- x2
E|-3---------|------------3-1~--5-3~-|-
C        Am                       F                    G
It'll be lonely this Christmas without you to hold
C         Am                     F           G
It'll be lonely this Christmas lonely and cold
G|----------|------------------------|-
D|----------|-5/7~---7-5-2-3~--3-5~--|-
A|---0-2-3~-|------------------------|-
E|-3--------|------------------------|-
C          Am                 F          G
It’ll be cold so cold without you to hold ... this Christmas.

C       G           C
G|---------|-----------------|--------------------||-
D|---------|-0-2-3--3-2-0----|-5-7-5-3--2-0~------||-
A|---0-2-3-|--------------3--|---------------(3~)-||- >> verse2
E|-3-------|-----------------|--------------------||-


Verse2: 01:18 “pump pump pump” x2
G|-----------|-----------------------|-
D|-----------|--------0-2-3~---3-5~~-|-
A|- ch -(3~)-|-0-3~~-----------------|- 
E|-----------|-----------------------|-
C                Am                 F                G
Each time I remember the day you went away
G|-----------|----------------------|-
D|-5---------|--------0-2-3~---3-5~-|-
A|---0-2-3~~-|-0-3~~----------------|- 
E|-----------|----------------------|-
C                  Am                  F                G
How I never listened to the things you had to say

G|-----------|----------------------|-
D|-----------|----------------------|-
A|---0-2-3~~-|-2-0~--3-0------------|- x2
E|-3---------|-----------3-1~--5-3~-|-
C                           Am
I just break down, when I look around
        F                G
The only things I see
C                             Am
Are emptiness and loneliness and a
F                G
Unvent Christmas tree...


Chorus2: 01:47
G|-----------|-----------------------|-
D|-----------|-----------------------|-
A|---0-2-3~~-|-2-0~---3-0------------|- x2
E|-3---------|------------3-1~--5-3~-|-
C        Am                       F                    G
It'll be lonely this Christmas without you to hold
C         Am                     F           G
It'll be lonely this Christmas lonely and cold
G|----------|------------------------|-
D|----------|-5/7~---7-5-2-3~--3-5~--|-
A|---0-2-3~-|------------------------|-
E|-3--------|------------------------|-
C          Am                 F          G
It’ll be cold so cold without you to hold  ...this Christmas.

C       G           C
G|---------|-----------------|--------------------||-
D|---------|-0-2-3--3-2-0----|-5-7-5-3--2-0~------||-
A|---0-2-3-|--------------3--|--------------------||- 
E|-3-------|-----------------|---------------(3~)-||- >> spoken bridge


Spoken bridge: 02:19 “pump pump pump” x4 (play verse here)
G|----------|----------------------|-
D|-5~~------|--------0-2-3~---3-5~-|-
A|------3~~-|-0-3~~----------------|-  play x2
E|----------|----------------------|-
You remember last year... 
when you and I were alone... 
we never thought there’d be an end... 
and I remember looking at you that day... 

G|------------|-----------------------||-
D|------------|-----------------------||-
A|----0-2-3~~-|-2-0~---3-0------------||- play x2
E|(3~)--------|------------3-1~--5-3~-||-
and I remember thinking that Christmas must have been made for us, 
Coz darlin’ this is the time of year that you you really need love. 
when it means so very very much...”

Spoken Chorus3: 02:47 Backing vocals 
G|-----------|-----------------------|-
D|-----------|-----------------------|-
A|---0-2-3~~-|-2-0~---3-0------------|- x2
E|-3---------|------------3-1~--5-3~-|-
C        Am                       F                    G
It'll be lonely this Christmas without you
(so it’ll be lonely this Christmas without you to hold)
to hold...
C         Am                     F           G
It'll be lonely this Christmas lonely and
(It’ll be so very lonely this Christmas lonely and cold)
cold...

Chorus4 / outro: 03:01 
G|-----------|-----------------------|-
D|-----------|-----------------------|-
A|---0-2-3~~-|-2-0~---3-0------------|- x2
E|-3---------|------------3-1~--5-3~-|-
C        Am                       F                    G
It'll be lonely this Christmas without you to hold
C         Am                     F           G
It'll be lonely this Christmas lonely and cold

G|----------|------------------------|-
D|----------|-5/7~---7-5-2-3~--3-5~~-|-
A|---0-2-3~-|------------------------|-
E|-3--------|------------------------|- 
C          Am                 F          G
It’ll be cold so cold without you to hold  ...  this Christmas
C       G           C
G|---------|-----------------|--------------------||-
D|-5-------|-0-2-3--3-2-0----|--------------------||-
A|---0-2-3-|--------------3~-|--- spoken ending --||- 
E|---------|-----------------|--------------------||- 

“Merry Christmas Darlin wherever you are.         

End: 03:47


Suggest correction
Give kudos to tab author, rate the tab!
1 2 3 4 5
comments
print report bad tab
1 comment total.
0 reply
Bruno Frenchy 4,323 Nov 22, 2016 09:02 AM

Hi, just for the fun and because it's seasonal... so get ready !!

Enjoy,

Bruno

guest
You may want to rate the tab now too:
select rating
Wanna post a correction for this tab? Suggest correction