Oops, an error
Loading. Please wait.

The Sense Of Me tab

version 2
version 2

Whole song

1,591 views 27 this week
1 commentread comment
1 2 3 4 5
x 4
add to favorites
×
Save as Personal and add changes to this tab that will be seen only by you. Learn more ›
×
You can save this tab as Personal to edit and correct it or add notes. All changes will be seen only by you. Learn more »
launch autoscroll
font size
0
reset
how to read this tab
guitar tuner
edit
Autoscroll
slow
fast
+/-
esc
set tempo
stop
Author
Song: The sense of me
Artist: Mud Flow
Album: A life on standby
Tabbed by: Hockeyvampire

Tuning: Standard No Capo
Clean Guitar Tone/ Acoustic Guitar

This is played throughout the entire song
Except where noted. 
[Backing Guitar]
e|-------------|
B|-------------|
G|-------------|
D|---3-3-------|
A|-------5-----|
E|-------------|

Let each note ring out. 
[Verse 1]

e|------------------------------------------------------5--------3---------------|  
B|----------6--------5--------3----------------6--------------------------6------|  
G|------7---------5--------3--------7--------7--------5--------3--------7--------| x2
D|---7---------7--------5--------7--------7--------7--------5--------7-----------|
A|-------------------------------------------------------------------------------|
E|-------------------------------------------------------------------------------|


[Pre-Chorus]
e|------------------------|
B|-------6-5-6-5-6-5-6----|
G|------------------------|
D|-----7------------------|
A|------------------------|
E|------------------------|

[Chorus]

e|------------------------------------------------------|
B|------6-----5-----6-----5-----6-----5-----6-----5-----|
G|---------7-----------7-----------7-----------7--------|
D|---7-----------7-----------7-----------7--------------|
A|------------------------------------------------------|
E|------------------------------------------------------|

e|------------5-----------5-----------5-----------------|
B|------6-----------6-----------6-----------6-----5-----|
G|---------7-----------7-----------7-----------7--------|
D|---7-----------7-----------7--------------------------|
A|------------------------------------------------------|
E|------------------------------------------------------|

e|------------3-----------3-----------3-----------3---|
B|---------3-----------3-----------3-----------3------|
G|------3-----------3-----------3-----------3---------|
D|---5-----------5-----------5-----------5------------|
A|----------------------------------------------------|
E|----------------------------------------------------|

e|------------------------5------------------------------|
B|------6-----5-----6-----------6-----5-----6-----5------|
G|---------7-----------7-----------7-----------7---------|
D|---7-----------7-----------7-----------7---------------|
A|-------------------------------------------------------|
E|-------------------------------------------------------|

For the solo, crank your distortion
And play an alternate picking pattern. 
Play each note 16 times, except for the
first 8, which is only played 3 times. 
Let the last note ring out. Keep playing
The backing guitar and the chorus guitar
Over the solo. 

[Solo]

e|----------------------------------------|
B|-8--10--13----------10--13--------------|
G|------------12--10----------12--10------|
D|----------------------------------------|
A|----------------------------------------|
E|----------------------------------------|

This is just this guitar. Dont play the backing 
Guitar here. 
[Outro]

e|--------------------------------------|
B|---------6--------5--------3----------|
G|------7--------5--------3--------7----|
D|---7--------7--------5--------7-------|
A|--------------------------------------|
E|--------------------------------------|




            
            
Suggest correction
Creating personal tab
Creating personal tab
You can edit any tab online and save it as your Personal.

You can edit, replace or remove any tab part or add personal notes – all changes will be seen only by you.

Personal tabs can be accessed anytime from any device, even offline.
Learn more »
comments
print report bad tab
1 comment total.
0 reply
ezzabryce 10 May 14, 2017 07:20 AM

solo is perfect

guest
You may want to rate the tab now too:
select rating
Wanna post a correction for this tab? Suggest correction