Oops, an error
Loading. Please wait.

I Forgive It All tab

1,058 views 1 this week
3 commentsread comments
1 2 3 4 5
1 last vote to show rating
add to favorites
×
Save as Personal and add changes to this tab that will be seen only by you. Learn more ›
×
You can save this tab as Personal to edit and correct it or add notes. All changes will be seen only by you. Learn more »
launch autoscroll
font size
0
reset
how to read this tab
guitar tuner
edit
Autoscroll
slow
fast
+/-
esc
set tempo
stop
Author
Difficulty
[Intro]

    D      
e|--2----2------2----2--------2----2--------2----2---------------------------|
B|---------3-------------3-------------3-------------3-----------------------|
G|-----------2-------------2-------------2-------------2---------------------|
D|--0--0--------0--0----------0--0----------0--0-----------------------------|
A|--------0------------0-------------0-------------0-------------------------|
E|---------------------------------------------------------------------------|

    D    
e|--2----2------2----2--------2----2--------2----2---------------------------|
B|---------3-------------3-------------3-------------3-----------------------|
G|-----------2-------------2-------------2-------------2---------------------|
D|--0--0--------0--0----------0--0----------0--0-----------------------------|
A|--------0------------0-------------0-------------0-------------------------|
E|---------------------------------------------------------------------------|


[Verse]

    D                         Bm            A
e|--2----2------2----2-------------------------------------------------------|
B|---------3-------------3----3--------3----2-------2------------------------|
G|-----------2-------------2-------4-----4------2-----2----------------------|
D|--0--0--------0--0-------------4---4--------2---2--------------------------|
A|--------0------------0------2-------------0--------------------------------|
E|---------------------------------------------------------------------------|
"Take my horse down to the water, Let it graze awhile"

    D       
e|--2----2------2----2--------2----2--------2----2---------------------------|
B|---------3-------------3-------------3-------------3-----------------------|
G|-----------2-------------2-------------2-------------2---------------------|
D|--0--0--------0--0----------0--0----------0--0-----------------------------|
A|--------0------------0-------------0-------------0-------------------------|
E|---------------------------------------------------------------------------|

    D                         Bm            A
e|--2----2------2----2-------------------------------------------------------|
B|---------3-------------3----3--------3----2-------2------------------------|
G|-----------2-------------2-------4-----4------2-----2----------------------|
D|--0--0--------0--0-------------4---4--------2---2--------------------------|
A|--------0------------0------2-------------0--------------------------------|
E|---------------------------------------------------------------------------|
"Take my horse down to the water, Let it graze awhile"

    D   
e|--2----2------2----2--------2----2--------2----2---------------------------|
B|---------3-------------3-------------3-------------3-----------------------|
G|-----------2-------------2-------------2-------------2---------------------|
D|--0--0--------0--0----------0--0----------0--0-----------------------------|
A|--------0------------0-------------0-------------0-------------------------|
E|---------------------------------------------------------------------------|

    A                          Bm           A           
e|--0----0--------0---0---------------------0-------0------------------------|
B|-----------2------------2----3-------3--------2-----2----------------------|
G|-------------2------------2------4-----4-----------------------------------|
D|-----2------------2------------4------------2------------------------------|
A|--0------0------0-----0------2-----2------0-----0--------------------------|
E|---------------------------------------------------------------------------|
"I have not been down these roads since I was a child"

    D     
e|--2----2------2----2--------2----2--------2----2---------------------------|
B|---------3-------------3-------------3-------------3-----------------------|
G|-----------2-------------2-------------2-------------2---------------------|
D|--0--0--------0--0----------0--0----------0--0-----------------------------|
A|--------0------------0-------------0-------------0-------------------------|
E|---------------------------------------------------------------------------|


[Verse]

    D                         Bm            A
e|--2----2------2----2-------------------------------------------------------|
B|---------3-------------3----3--------3----2-------2------------------------|
G|-----------2-------------2-------4-----4------2-----2----------------------|
D|--0--0--------0--0-------------4---4--------2---2--------------------------|
A|--------0------------0------2-------------0--------------------------------|
E|---------------------------------------------------------------------------|
"I ain't broke and I ain't hungry but I'm close enough to care"

    D  
e|--2----2------2----2--------2----2--------2----2---------------------------|
B|---------3-------------3-------------3-------------3-----------------------|
G|-----------2-------------2-------------2-------------2---------------------|
D|--0--0--------0--0----------0--0----------0--0-----------------------------|
A|--------0------------0-------------0-------------0-------------------------|
E|---------------------------------------------------------------------------|

    D                         Bm            A
e|--2----2------2----2-------------------------------------------------------|
B|---------3-------------3----3--------3----2-------2------------------------|
G|-----------2-------------2-------4-----4------2-----2----------------------|
D|--0--0--------0--0-------------4---4--------2---2--------------------------|
A|--------0------------0------2-------------0--------------------------------|
E|---------------------------------------------------------------------------|
"I ain't broke and I ain't hungry but I'm close enough to care"

    D    
e|--2----2------2----2--------2----2--------2----2---------------------------|
B|---------3-------------3-------------3-------------3-----------------------|
G|-----------2-------------2-------------2-------------2---------------------|
D|--0--0--------0--0----------0--0----------0--0-----------------------------|
A|--------0------------0-------------0-------------0-------------------------|
E|---------------------------------------------------------------------------|

     A                        Bm     A            D
e|--0----0--------0---0---------------------0-------0------------------------|
B|-----------2------------2----3-------3--------2-----2----------------------|
G|-------------2------------2------4-----4-----------------------------------|
D|-----2------------2------------4------------2------------------------------|
A|--0------0------0-----0------2-----2------0-----0--------------------------|
E|---------------------------------------------------------------------------|
"Send my things to my niece Dora, She'll keep 'em over there"

    D
e|--2----2------2----2--------2----2--------2----2---------------------------|
B|---------3-------------3-------------3-------------3-----------------------|
G|-----------2-------------2-------------2-------------2---------------------|
D|--0--0--------0--0----------0--0----------0--0-----------------------------|
A|--------0------------0-------------0-------------0-------------------------|
E|---------------------------------------------------------------------------|


[Chorus]

    G
e|--3---3--------3---3--------3---3-------3---3---3--------------------------|
B|----------3------------3------------3-------------3------------------------|
G|------------0------------0------------0------------------------------------|
D|----0---0--------0---0--------0---0-------0---0----------------------------|
A|---------------------------------------------------------------------------|
E|--3------------3------------3-----------3----------------------------------|
"I forgive it all, I forgive it all"

    D                                        
e|--2----2------2----2--------2----2--------2----2---------------------------|
B|---------3-------------3-------------3-------------3-----------------------|
G|-----------2-------------2-------------2-------------2---------------------|
D|--0--0--------0--0----------0--0----------0--0-----------------------------|
A|--------0------------0-------------0-------------0-------------------------|
E|---------------------------------------------------------------------------|

    A
e|--0----0--------0----0--------0----0-------0----0--------------------------|
B|-----------2-------------2------------2-------------2----------------------|
G|-------------2-------------2------------2-------------2--------------------|
D|-----2-------------2-------------2------------2----------------------------|
A|--0------0------0------0------0-----0------0------0------------------------|
E|---------------------------------------------------------------------------|
"With her, I forgive it all"

    D
e|--2----2------2----2--------2----2--------2----2---------------------------|
B|---------3-------------3-------------3-------------3-----------------------|
G|-----------2-------------2-------------2-------------2---------------------|
D|--0--0--------0--0----------0--0----------0--0-----------------------------|
A|--------0------------0-------------0-------------0-------------------------|
E|---------------------------------------------------------------------------|


[Verse]

    D                         Bm            A
e|--2----2------2----2-------------------------------------------------------|
B|---------3-------------3----3--------3----2-------2------------------------|
G|-----------2-------------2-------4-----4------2-----2----------------------|
D|--0--0--------0--0-------------4---4--------2---2--------------------------|
A|--------0------------0------2-------------0--------------------------------|
E|---------------------------------------------------------------------------|
"There ain't no money in this deal, I just tag along"

    D    
e|--2----2------2----2--------2----2--------2----2---------------------------|
B|---------3-------------3-------------3-------------3-----------------------|
G|-----------2-------------2-------------2-------------2---------------------|
D|--0--0--------0--0----------0--0----------0--0-----------------------------|
A|--------0------------0-------------0-------------0-------------------------|
E|---------------------------------------------------------------------------|

    D                         Bm            A
e|--2----2------2----2-------------------------------------------------------|
B|---------3-------------3----3--------3----2-------2------------------------|
G|-----------2-------------2-------4-----4------2-----2----------------------|
D|--0--0--------0--0-------------4---4--------2---2--------------------------|
A|--------0------------0------2-------------0--------------------------------|
E|---------------------------------------------------------------------------|
"There ain't no money in this deal, I just tag along"

    D        
e|--2----2------2----2--------2----2--------2----2---------------------------|
B|---------3-------------3-------------3-------------3-----------------------|
G|-----------2-------------2-------------2-------------2---------------------|
D|--0--0--------0--0----------0--0----------0--0-----------------------------|
A|--------0------------0-------------0-------------0-------------------------|
E|---------------------------------------------------------------------------|

    A                          Bm           A  
e|--0----0--------0---0---------------------0-------0------------------------|
B|-----------2------------2----3-------3--------2-----2----------------------|
G|-------------2------------2------4-----4-----------------------------------|
D|-----2------------2------------4------------2------------------------------|
A|--0------0------0-----0------2-----2------0-----0--------------------------|
E|---------------------------------------------------------------------------|
Some things I feel right, somebody else thinks wrong


[Chorus]

    G
e|--3---3--------3---3--------3---3-------3---3---3--------------------------|
B|----------3------------3------------3-------------3------------------------|
G|------------0------------0------------0------------------------------------|
D|----0---0--------0---0--------0---0-------0---0----------------------------|
A|---------------------------------------------------------------------------|
E|--3------------3------------3-----------3----------------------------------|
"I forgive it all, I forgive it all"

    D        
e|--2----2------2----2--------2----2--------2----2---------------------------|
B|---------3-------------3-------------3-------------3-----------------------|
G|-----------2-------------2-------------2-------------2---------------------|
D|--0--0--------0--0----------0--0----------0--0-----------------------------|
A|--------0------------0-------------0-------------0-------------------------|
E|---------------------------------------------------------------------------|
   
    A
e|--0----0--------0----0--------0----0-------0----0--------------------------|
B|-----------2-------------2------------2-------------2----------------------|
G|-------------2-------------2------------2-------------2--------------------|
D|-----2-------------2-------------2------------2----------------------------|
A|--0------0------0------0------0-----0------0------0------------------------|
E|---------------------------------------------------------------------------|
"With her, I forgive it all"

    D
e|--2----2------2----2--------2----2--------2----2---------------------------|
B|---------3-------------3-------------3-------------3-----------------------|
G|-----------2-------------2-------------2-------------2---------------------|
D|--0--0--------0--0----------0--0----------0--0-----------------------------|
A|--------0------------0-------------0-------------0-------------------------|
E|---------------------------------------------------------------------------|


[Interlude]

    D                         Bm            A
e|--2----2------2----2-------------------------------------------------------|
B|---------3-------------3----3--------3----2-------2------------------------|
G|-----------2-------------2-------4-----4------2-----2----------------------|
D|--0--0--------0--0-------------4---4--------2---2--------------------------|
A|--------0------------0------2-------------0--------------------------------|
E|---------------------------------------------------------------------------|  

    D         
e|--2----2------2----2--------2----2--------2----2---------------------------|
B|---------3-------------3-------------3-------------3-----------------------|
G|-----------2-------------2-------------2-------------2---------------------|
D|--0--0--------0--0----------0--0----------0--0-----------------------------|
A|--------0------------0-------------0-------------0-------------------------|
E|---------------------------------------------------------------------------|

    D                         Bm            A
e|--2----2------2----2-------------------------------------------------------|
B|---------3-------------3----3--------3----2-------2------------------------|
G|-----------2-------------2-------4-----4------2-----2----------------------|
D|--0--0--------0--0-------------4---4--------2---2--------------------------|
A|--------0------------0------2-------------0--------------------------------|
E|---------------------------------------------------------------------------|  

    D        
e|--2----2------2----2--------2----2--------2----2---------------------------|
B|---------3-------------3-------------3-------------3-----------------------|
G|-----------2-------------2-------------2-------------2---------------------|
D|--0--0--------0--0----------0--0----------0--0-----------------------------|
A|--------0------------0-------------0-------------0-------------------------|
E|---------------------------------------------------------------------------|


[Verse]

    D                         Bm            A
e|--2----2------2----2-------------------------------------------------------|
B|---------3-------------3----3--------3----2-------2------------------------|
G|-----------2-------------2-------4-----4------2-----2----------------------|
D|--0--0--------0--0-------------4---4--------2---2--------------------------|
A|--------0------------0------2-------------0--------------------------------|
E|---------------------------------------------------------------------------|           
People are what people make em' that ain't gonna change

    D         
e|--2----2------2----2--------2----2--------2----2---------------------------|
B|---------3-------------3-------------3-------------3-----------------------|
G|-----------2-------------2-------------2-------------2---------------------|
D|--0--0--------0--0----------0--0----------0--0-----------------------------|
A|--------0------------0-------------0-------------0-------------------------|
E|---------------------------------------------------------------------------|
 
   D                         Bm            A
e|--2----2------2----2-------------------------------------------------------|
B|---------3-------------3----3--------3----2-------2------------------------|
G|-----------2-------------2-------4-----4------2-----2----------------------|
D|--0--0--------0--0-------------4---4--------2---2--------------------------|
A|--------0------------0------2-------------0--------------------------------|
E|---------------------------------------------------------------------------|    
"People are what people make 'em, that ain't gonna change"

    D    
e|--2----2------2----2--------2----2--------2----2---------------------------|
B|---------3-------------3-------------3-------------3-----------------------|
G|-----------2-------------2-------------2-------------2---------------------|
D|--0--0--------0--0----------0--0----------0--0-----------------------------|
A|--------0------------0-------------0-------------0-------------------------|
E|---------------------------------------------------------------------------|

    A                          Bm           A  
e|--0----0--------0---0---------------------0-------0------------------------|
B|-----------2------------2----3-------3--------2-----2----------------------|
G|-------------2------------2------4-----4-----------------------------------|
D|-----2------------2------------4------------2------------------------------|
A|--0------0------0-----0------2-----2------0-----0--------------------------|
E|---------------------------------------------------------------------------|
"There ain't nothing you can do, nothing you could rearrange"

    D  
e|--2----2------2----2--------2----2--------2----2---------------------------|
B|---------3-------------3-------------3-------------3-----------------------|
G|-----------2-------------2-------------2-------------2---------------------|
D|--0--0--------0--0----------0--0----------0--0-----------------------------|
A|--------0------------0-------------0-------------0-------------------------|
E|---------------------------------------------------------------------------|


[Chorus]

    G
e|--3---3--------3---3--------3---3-------3---3---3--------------------------|
B|----------3------------3------------3-------------3------------------------|
G|------------0------------0------------0------------------------------------|
D|----0---0--------0---0--------0---0-------0---0----------------------------|
A|---------------------------------------------------------------------------|
E|--3------------3------------3-----------3----------------------------------|
"I forgive it all, I forgive it.."

    D   
e|--2----2------2----2--------2----2--------2----2---------------------------|
B|---------3-------------3-------------3-------------3-----------------------|
G|-----------2-------------2-------------2-------------2---------------------|
D|--0--0--------0--0----------0--0----------0--0-----------------------------|
A|--------0------------0-------------0-------------0-------------------------|
E|---------------------------------------------------------------------------|
 
    A
e|--0----0--------0----0--------0----0-------0----0--------------------------|
B|-----------2-------------2------------2-------------2----------------------|
G|-------------2-------------2------------2-------------2--------------------|
D|-----2-------------2-------------2------------2----------------------------|
A|--0------0------0------0------0-----0------0------0------------------------|
E|---------------------------------------------------------------------------|
"With her, I forgive it all"

    D 
e|--2----2------2----2--------2----2--------2----2---------------------------|
B|---------3-------------3-------------3-------------3-----------------------|
G|-----------2-------------2-------------2-------------2---------------------|
D|--0--0--------0--0----------0--0----------0--0-----------------------------|
A|--------0------------0-------------0-------------0-------------------------|
E|---------------------------------------------------------------------------|

    A
e|--0----0--------0----0--------0----0-------0----0--------------------------|
B|-----------2-------------2------------2-------------2----------------------|
G|-------------2-------------2------------2-------------2--------------------|
D|-----2-------------2-------------2------------2----------------------------|
A|--0------0------0------0------0-----0------0------0------------------------|
E|---------------------------------------------------------------------------|
"With her, I forgive it all"

    D      
e|--2----2------2----2--------2----2--------2--------------------------------|
B|---------3-------------3-------------3----3--------------------------------|
G|-----------2-------------2-------------2--2--------------------------------|
D|--0--0--------0--0----------0--0----------0--------------------------------|
A|--------0------------0-------------0---------------------------------------|
E|---------------------------------------------------------------------------|

            
            
Suggest correction
Creating personal tab
Creating personal tab
You can edit any tab online and save it as your Personal.

You can edit, replace or remove any tab part or add personal notes – all changes will be seen only by you.

Personal tabs can be accessed anytime from any device, even offline.
Learn more »
Give kudos to tab author, rate the tab!
1 2 3 4 5
comments
print report bad tab
3 comments total.
0 reply
john.haralampop 20 Aug 24, 2016 08:50 PM

Thanks this tab is great! Could you please do Beautiful World?

0 reply
john.haralampop 20 Sep 04, 2016 11:30 AM

Thanks this tab is great! Could you please do Hope?

0 reply
darrennie 25 Sep 01, 2017 10:35 PM

Great pickin song.

guest
You may want to rate the tab now too:
select rating
Wanna post a correction for this tab? Suggest correction