Oops, an error
Loading. Please wait.

Champagne And Reefer Tab

version 1
version 1

Whole song

12,693 views 63 this week
no commentswrite comment
1 2 3 4 5
accurate
x 4
add to favorites
launch autoscroll
font size
0
reset
how to read this tab
guitar tuner
Tab Pro tools
  • play this tab
  • loop segment
  • change instrument
  • show fretboard
  • metronome
Autoscroll
slow
fast
+/-
esc
set tempo
stop
Contributor
Shuffle Blues in A

Main riff:

   A7
e-|--5--8--5-------------------5--8--5---|-------------------5--8--5----------|
B-|--------------------------------------|------------------------------------|
G-|--------------------------------------|------------------------------------|
D-|--------------5--7--------------------|------5 / 7-------------------------|
A-|---------5 / 7------------------------|-5--7----------------------------7--|
E-|-------------------(5-8)5-------------|------------(5-8)5---------------5--|
                       ~trill                         ~trill

The main riff can be accompanied by an A shuffle pattern:
   A7
e-|--------------------------------------|------------------------------------|
B-|--------------------------------------|------------------------------------|
G-|--------------------------------------|------------------------------------|
D-|--------------------------------------|------------------------------------|
A-|--7-7-9-9-------7-7-9-9---------------|---7-7-9-9-------7-7-9-9------------|
E-|--5-5-5-5-------5-5-5-5---------------|---5-5-5-5-------5-5-5-5------------|



Verse:

   D7
e-|--------------------------------------|------------------------------------|
B-|--------------------------------------|------------------------------------|
G-|--------------------------------------|------------------------------------|
D-|--7-7-9-9-------7-7-9-9---------------|---7-7-9-9-------7-7-9-9------------|
A-|--5-5-5-5-------5-5-5-5---------------|---5-5-5-5-------5-5-5-5----------7-|
E-|--------------------------------------|----------------------------------5-|
   Bring me champagne...                                             ... high


  (Main Riff)

   D7
e-|--------------------------------------|------------------------------------|
B-|--------------------------------------|------------------------------------|
G-|--------------------------------------|------------------------------------|
D-|--7-7-9-9-------7-7-9-9---------------|---7-7-9-9-------7-7-9-9------------|
A-|--5-5-5-5-------5-5-5-5---------------|---5-5-5-5-------5-5-5-5----------7-|
E-|--------------------------------------|----------------------------------5-|
   Bring me champagne...                                             ... high

  (Main Riff)

   E7                                       D7
e-|--------------------------------------|------------------------------------|
B-|--------------------------------------|------------------------------------|
G-|--------------------------------------|------------------------------------|
D-|--9-9--11-11------9-9--11-11----------|---7-7-9-9-------7-7-9-9------------|
A-|--7-7--7--7-------7-7--7--7-----------|---5-5-5-5-------5-5-5-5----------7-|
E-|--------------------------------------|----------------------------------5-|
   Well you know...
comments
print report bad tab
I want to post or [tab]
guest
You may want to rate the tab now too:
select rating
Please do not post tabs as comments. Select "correction" instead!