Oops, an error
Loading. Please wait.

Mannish Boy Tab

version 1
version 1

Interactive

213,494 views 408 this week
14 commentsread comments
1 2 3 4 5
x 45
add to favorites
launch autoscroll
font size
0
reset
how to read this tab
guitar tuner
Autoscroll
slow
fast
+/-
esc
set tempo
stop
Help us to improve Ultimate-Guitar.com Take our survey!
×
MUDDY WATERS
                         MANNISH BOY


STANDARD TUNING

  here is one way you can play it

e|------------------------------|
B|------------------------------|
G|------7-----5-----------------|
D|--7---7--7--5--7--------------|
A|--7---5--7--3--7--------------|
E|--5---5--5-----5--------------|


  it can also be played like this
e|------------------------------|
B|------------------------------|
G|-------7-----5h6--------------|
D|----7--7--7--5h6--------------|
A|----0-----0-------------------|
E|------------------------------|

this is a great song by one of the greatest blues guitarists of all time

peace

*************

h  Hammer on

*************
Suggest correction
comments
print report bad tab
14 comments total. Showing first comments.
0 reply
KSKV 10 Jun 08, 2006 12:17 PM

it's way easyer to play:
------------------------------|
------------------------------|
------7-----------------------|
--7---7--7--10--7-------------|
--7---5--7--10--7-------------|
--5---5--5--8--5--------------|

instead of:
------------------------------|
------------------------------|
------7-----5-----------------|
--7---7--7--5--7--------------|
--7---5--7--3--7--------------|
--5---5--5-----5--------------|

+1 reply
Bradgrrw 31 Oct 22, 2007 10:25 PM

okay 3 things 1 great tab awsome start annd it probally works pefect for you but try just doing it in power chords like so:
------------------------------|
------------------------------|
------7-----5-----------------|
--7---7--7--5--7--------------|
--7---5--7--3--7--------------|
--5------5-----5--------------| that extra 5 is a bitch also for a different sound and if ou suck at powerchords try A D A C A normal chords it sound pretty cool also but still great tab

0 reply
NowhereMan42 10 Jun 21, 2009 10:50 PM

great tab, really helped, thanks!!

Although I think KSKV's right, it is way easier to just slide up to the 8

And the extra 5 isn't too bad if you barre the 5 on the bottom two strings and move

guest
You may want to rate the tab now too:
select rating
Wanna post a correction for this tab? Suggest correction