Oops, an error
Loading. Please wait.

Mannish Boy tab

version 2
version 2

Whole song

Interactive

43,996 views 90 this week
no commentswrite comment
1 2 3 4 5
x 17
add to favorites
×
Save as Personal and add changes to this tab that will be seen only by you. Learn more ›
×
You can save this tab as Personal to edit and correct it or add notes. All changes will be seen only by you. Learn more »
launch autoscroll
font size
0
reset
how to read this tab
guitar tuner
edit
Autoscroll
slow
fast
+/-
esc
set tempo
stop
Author
Difficulty
intermediate
Muddy Waters
"Mannish Boy"

The song is composed of 5 licks. The first three are played in the intro of the song and 
are used as fil-ins to answer the 5th lick throughout the song.

[1st Lick]

After"Wooooaa Yeahh"

e|---------------------|
B|---8/10v-------------|
G|------------7b9p5----|
D|------------------7--|
A|---------------------|
E|---------------------|


[2nd Lick]

After 2nd "Wooa Yeah"

e|------------------|
B|------------------|
G|-7b9--7b9r7p5-----|
D|----------------7-|
A|------------------|
E|------------------|


[3rd Lick]

After "Everything,evrything, everything gonna be alright dis' mornin'"

e|-------------------------------------|
B|--------------8----------------------|
G|--7/9--7/6\7-----7b9r7p5-------------|
D|--------------------------7---5/7v---|
A|-------------------------------------|
E|-------------------------------------|


[3rd Lick]

"Ohhhh Yeahh"

e|----------------5------------|
B|-----------------------------|
G|---7b9r7p5-------------------|
D|------------7----------------|
A|-----------------------------|
E|-----------------------------|


[4th Lick]

Main Riff

e|-------------------------------|
B|--------7----5-----------------|
G|--------7----5h6--6------------|
D|---/7v----7-------7------------|
A|-------------------------------|
E|-------------------------------| 


************************************

| h  Hammer-on
| p  Pull-off
| r  Release
| b  Bend
| /  Slide up
| \  Slide down 

************************************
Suggest correction
Creating personal tab
Creating personal tab
You can edit any tab online and save it as your Personal.

You can edit, replace or remove any tab part or add personal notes – all changes will be seen only by you.

Personal tabs can be accessed anytime from any device, even offline.
Learn more »
comments
print report bad tab
guest
You may want to rate the tab now too:
select rating
Wanna post a correction for this tab? Suggest correction