Oops, an error
Loading. Please wait.

The Only Son Of The Widow From Nain tab

68 views 1 this week
no commentswrite comment
1 2 3 4 5
3 more votes to show rating
add to favorites
×
Save as Personal and add changes to this tab that will be seen only by you. Learn more ›
×
You can save this tab as Personal to edit and correct it or add notes. All changes will be seen only by you. Learn more »
launch autoscroll
font size
0
reset
how to read this tab
guitar tuner
edit
Autoscroll
slow
fast
+/-
esc
set tempo
stop
Author
Artist: Mudhoney
Song: The Only Son Of The Widow From Nain
Album: Vanishing Point (2013)

INTRO
e-------------------------------------------|
b-------------------------------------------|
g-------------------------------------------|
D-------------------------------------------|
A--6p0-4p0-5p0------------------------------|
E-------------------------------------------|

VERSE/CHORUS
e-------------------------------------------|
b-------------------------------------------|
g-------------------------------------------|
D---------------6---------------------------|
A--6p0-4p0-5p0--6---------------------------|
E---------------4---------------------------|

"Hey man! Who turned out the lights?!..."

e------------------------------------------|
b------------------------------------------|
g------------------------------------------|
D--6--------------------------------10-----|
A--6--------------------------------10-----|
E--4--------------------------------8------|

"I'm looking forward to do it again, I'm coming back! I'm coming back!..."

VERSE/CHORUS

GUITAR SOLO
e----------------------------------------------|
b---------------------------11b----------------|
g---------------------11h13--------------------|
D---------------13-13--------------------------|
A--6p0-4p0-5p0--------------------6p0-4p0-5p0--|
E----------------------------------------------|

I don't know anymore but I use this scale

e----------------------------11-14-------------|
b-----------------------11-14------------------|
g------------------11-13-----------------------|
D-------------11-13----------------------------|
A-------11-13----------------------------------|
E--11-14---------------------------------------|

BRIDGE
e----------------------------------------------------------|
b----------------------------------------------------------|
g----------------------------------------------------------|
D--6-------------------6/8-8--8/10-10-------14p0-12p0-13p0-|
A----------------------------------------------------------|
E----------------------------------------------------------|

"They call me the only son of the widow from nain..."

VERSE/CHORUS

RIFF

Just use the same scale and you'll probably figure it out

OUTRO
e-----------------------------------------------------------|
b-----------------------------------------------------------|
g-----------------------------------------------------------|
D-----------------------------------------------------6-----|
A--6p0-4p0-5p0-----6p0-4p0-5p0-----6p0-4p0-5p0--------6-----|
E-----------------------------------------------------4-----|

"MORE!    MORE!         MORE!                       YEAHH!"


Hope this helps, it might not be totally accurate since I learned this from ear.

            
            
Suggest correction
Creating personal tab
Creating personal tab
You can edit any tab online and save it as your Personal.

You can edit, replace or remove any tab part or add personal notes – all changes will be seen only by you.

Personal tabs can be accessed anytime from any device, even offline.
Learn more »
Give kudos to tab author, rate the tab!
1 2 3 4 5
comments
print report bad tab
guest
You may want to rate the tab now too:
select rating
Wanna post a correction for this tab? Suggest correction