Oops, an error
Loading. Please wait.

What To Do With The Neutral bass

62 views 1 this week
no commentswrite comment
1 2 3 4 5
3 more votes to show rating
add to favorites
×
Save as Personal and add changes to this tab that will be seen only by you. Learn more ›
×
You can save this tab as Personal to edit and correct it or add notes. All changes will be seen only by you. Learn more »
launch autoscroll
font size
0
reset
guitar tuner
edit
Autoscroll
slow
fast
+/-
esc
set tempo
stop
Author
Difficulty
So I couldn't find a tab for this song anywhere. And I really like the groove in this song so I figured 
I'd give it a try to tab it. Please correct me if I'm wrong since I just go by ear it's hard to know how 
it's supposed to be played. Other than that I hope you find this helpful.

Artist: Mudhoney
Album: Vanishing Point (2013)
Song: What to do With The Neutral
Bass player: Guy Maddison
Tuning: Standard(EADG)


INTRO
-----------------------------------------------------------|
-----------------------------------------------------------|
-0-12-11-10/-0-12-11-10-12-10-0------------X4--------------|
-----------------------------------------------------------|

VERSE
----------------------------------------------------------|
----------------------------------------------------------|
-0-12-11-10/-0-12-11-10-12-10-0-----------X2--------------|
----------------------------------------------------------|

--------------7--7--5--5---------------------------------|
---------------------------------------------------------|
--0-0-0-0-0-5--5--3--3--/77777777------------------------|
---------------------------------------------------------|

and then play the verse 1 more time

CHORUS
--------------------------------------------------------------------|
--------------------------------------------------------------------|
2-2-0-2-2-2----5h7-7-7-7-7-7-7-0-2-2-2-0-2-2----5h7-7-7-7-7/19191919|   X2  but except the 19 part again
------------5h7------------------------------5h7--------------------|       you play

--------------------------------------------------------|
--------------------------------------------------------|
2-2-2-2-2-2---------------------------------------------|
------------5h7/12-0-0-0-0-0-0-0-0-0-0------------------|

VERSE(SOLO)x1
VERSE x2
CHORUS x2
VERSE (slowly breaks apart with the guitar and drums)

Hope this was somewhat helpful! Feel free to send corrections if you find out something that I don't know.
This song is apparently their "sexy sound".
Have fun!

            
            
Suggest correction
Creating personal tab
Creating personal tab
You can edit any tab online and save it as your Personal.

You can edit, replace or remove any tab part or add personal notes – all changes will be seen only by you.

Personal tabs can be accessed anytime from any device, even offline.
Learn more »
Give kudos to tab author, rate the tab!
1 2 3 4 5
comments
print report bad tab
guest
You may want to rate the tab now too:
select rating
Wanna post a correction for this tab? Suggest correction