Oops, an error
Loading. Please wait.

All Talk tab

196 views 3 this week
no commentswrite comment
1 2 3 4 5
2 more votes to show rating
add to favorites
×
Save as Personal and add changes to this tab that will be seen only by you. Learn more ›
×
You can save this tab as Personal to edit and correct it or add notes. All changes will be seen only by you. Learn more »
launch autoscroll
font size
0
reset
how to read this tab
guitar tuner
edit
Autoscroll
slow
fast
+/-
esc
set tempo
stop
-------------------------------------------------------------------------------
                             All Talk - Mudvayne
-------------------------------------------------------------------------------
Tabbed by: mike3292000
e-mail: mike32900@gmail.com

************************************
| *   palm mute
| /   slide up
| \   slide down
| h   hammer-on
| p   pull-off
| v   vibrato
| +   harmonic
| x   Mute note
| b   Bend
| pb  Pre-bend
| br  Bend release
| pbr Pre-bend release
| brb Bend release bend

************************************
Tuning: Drop C

Intro (Plays Throughout 1st and 2nd Verse)
e|---------------------------------------------------------------------------|
B|-------------0------------------------------0------------------------------|
G|---------0-------0----------------------0-------0-----------------2--------|
D|--------------------------------------------------------------4-------4----|
A|---------------------------------------------------------------------------|
E|---2-----------------------------2---------------------2-------------------|

e|---------------------------------------------------------------------------|
B|-------------0------------------------------2------------------------------|
G|---------0-------0----------------------0-------0------------------2-------|
D|---------------------------------------------------------------4-------4---|
A|---------------------------------------------------------------------------|
E|---2-----------------------------5---------------------0-------------------|

e|---------------------------------------------------------------------------|
B|-------------0------------------------------0------------------------------|
G|---------0-------0----------------------0-------0-----------------2--------|
D|--------------------------------------------------------------4-------4----|
A|---------------------------------------------------------------------------|
E|---2-----------------------------2---------------------2-------------------|

e|---------------------------------------------------------------------------|
B|-------------0------------------------------2------------------------------|
G|---------0-------0----------------------0----------------------------------|
D|---------------------------------------------------------------------------|
A|---------------------------------------------------------------------------|
E|---2-----------------------------5-----------------------------------------|

Verse (Lead, Play Twice)  (Rhythm Same as Intro) 
"Where Will You Be When It All Falls Down"
e|---------------------------------------------------------------------------|
B|---8-------8---8---------------8---8----------8s10s8--------8-------8---8--|
G|-------7-------------------7-------------7----------------------7----------|
D|---------------------------------------------------------------------------|
A|---------------------------------------------------------------------------|
E|---------------------------------------------------------------------------|

e|---------------------------------------------------------------------------|
B|-------8---8---7----------8-------8---8-------------8---8-----------8s10s8-|
G|---7--------------------------7-----------------7---------------7----------|
D|---------------------------------------------------------------------------|
A|---------------------------------------------------------------------------|
E|---------------------------------------------------------------------------|

e|---------------------------------------------------------------------------|
B|---8-------8---8---------------8---8---7-----------------------------------|
G|-------7-------------------7-----------------------------------------------|
D|---------------------------------------------------------------------------|
A|---------------------------------------------------------------------------|
E|---------------------------------------------------------------------------|

Chrous (Hard to Distinguish But This is Close)
"I Could Talk About Love, I Could Talk About Hate."
e|---------------------------------------------------------------------------|
B|---------------------------------------------------------------------------|
G|---------------------------------------------------------------------------|
D|---5-5-5---4-4-4---4-4-4--------5-5-5---4-4-4---4-4----------2-------------|
A|---5-5-5---5-5-5---5-5-5--------5-5-5---5-5-5---5-5------------------------|
E|---5-5-5---4-4-4---4-4-4--------5-5-5---4-4-4---4-4--5-4-3-2---------------|

e|---------------------------------------------------------------------------|
B|---------------------------------------------------------------------------|
G|---------------------------------------------------------------------------|
D|---5-5-5---4-4-4--------5-5-5---4-4-4---4-4----------2---------------------|
A|---5-5-5---5-5-5--------5-5-5---5-5-5---5-5--------------------------------|
E|---5-5-5---4-4-4--------5-5-5---4-4-4---4-4--5-4-3-2-----------------------|

e|---------------------------------------------------------------------------|
B|---------------------------------------------------------------------------|
G|---------------------------------------------------------------------------|
D|---5-5-5---4-4-4---4-4-4--------5-5-5---4-4-4---4-4----------2-------------|
A|---5-5-5---5-5-5---5-5-5--------5-5-5---5-5-5---5-5------------------------|
E|---5-5-5---4-4-4---4-4-4--------5-5-5---4-4-4---4-4--5-4-3-2---------------|

e|---------------------------------------------------------------------------|
B|---------------------------------------------------------------------------|
G|---------------------------------------------------------------------------|
D|---5-5-5---4-4-4--------5-5-5---4-4-4---4-4----------2---------------------|
A|---5-5-5---5-5-5--------5-5-5---5-5-5---5-5--------------------------------|
E|---5-5-5---4-4-4--------5-5-5---4-4-4---4-4--5-4-3-2-----------------------|

Little "Solo" Before Verse 2 
"Who Will You Blame"
e|---------------------------------------------------------------------------|
B|---------------------------------------------------------------------------|
G|---9v----12--11--9--12--11--9--7--9--7--5--4--5--4v----4-5-4s2s4-----------|
D|---------------------------------------------------------------------------|
A|---------------------------------------------------------------------------|
E|---------------------------------------------------------------------------|
            *   *  *  *    *  *  *  *  *  *  *  *        
 
e|---------------------------------------------------------------------------|
B|--------------------------------------------------------7s8---8s10---------|
G|---2s4s2s4s2---------------------------2h4----4h5--------------------------|
D|-------------------5-4-4b5-----4h5-----------------------------------------|
A|---------------------------------------------------------------------------|
E|---------------------------------------------------------------------------|

e|---------------------------------------------------------------------------|
B|---10s13-12---12h13p12p11-12----12h13p12p11-9v-----------------------------|
G|---------------------------------------------------------------------------|
D|---------------------------------------------------------------------------|
A|---------------------------------------------------------------------------|
E|---------------------------------------------------------------------------|

Verse 2
"Who Will You Blame For The Servile Days" 
(Rhythm Guitar In Background Like The Intro)
e|---------------------------------------------------------------------------|
B|---8-------8---8---------------8---8----------8s10s8--------8-------8---8--|
G|-------7-------------------7-------------7----------------------7----------|
D|---------------------------------------------------------------------------|
A|---------------------------------------------------------------------------|
E|---------------------------------------------------------------------------|

e|---------------------------------------------------------------------------|
B|-------8---8---7----------8-------8---8-------------8---8-----------8s10s8-|
G|---7--------------------------7-----------------7---------------7----------|
D|---------------------------------------------------------------------------|
A|---------------------------------------------------------------------------|
E|---------------------------------------------------------------------------|

e|---------------------------------------------------------------------------|
B|---8-------8---8---------------8---8---7-----------------------------------|
G|-------7-------------------7-----------------------------------------------|
D|---------------------------------------------------------------------------|
A|---------------------------------------------------------------------------|
E|---------------------------------------------------------------------------|

Chrous
"I Could Talk About Love, I Could Talk About Hate."
e|---------------------------------------------------------------------------|
B|---------------------------------------------------------------------------|
G|---------------------------------------------------------------------------|
D|---5-5-5---4-4-4---4-4-4--------5-5-5---4-4-4---4-4----------2-------------|
A|---5-5-5---5-5-5---5-5-5--------5-5-5---5-5-5---5-5------------------------|
E|---5-5-5---4-4-4---4-4-4--------5-5-5---4-4-4---4-4--5-4-3-2---------------|

e|---------------------------------------------------------------------------|
B|---------------------------------------------------------------------------|
G|---------------------------------------------------------------------------|
D|---5-5-5---4-4-4--------5-5-5---4-4-4---4-4----------2---------------------|
A|---5-5-5---5-5-5--------5-5-5---5-5-5---5-5--------------------------------|
E|---5-5-5---4-4-4--------5-5-5---4-4-4---4-4--5-4-3-2-----------------------|

e|---------------------------------------------------------------------------|
B|---------------------------------------------------------------------------|
G|---------------------------------------------------------------------------|
D|---5-5-5---4-4-4---4-4-4--------5-5-5---4-4-4---4-4----------2-------------|
A|---5-5-5---5-5-5---5-5-5--------5-5-5---5-5-5---5-5------------------------|
E|---5-5-5---4-4-4---4-4-4--------5-5-5---4-4-4---4-4--5-4-3-2---------------|

e|---------------------------------------------------------------------------|
B|---------------------------------------------------------------------------|
G|---------------------------------------------------------------------------|
D|---5-5-5---4-4-4--------5-5-5---4-4-4---4-4----------2------------2--------|
A|---5-5-5---5-5-5--------5-5-5---5-5-5---5-5--------------------------------|
E|---5-5-5---4-4-4--------5-5-5---4-4-4---4-4--5-4-3-2------5-4-3-2----------|

Instrumental
e|---------------------------------------------------------------------------|
B|---------------------------------------------------------------------------|
G|---------------------------------------------------------------------------|
D|-----------2-----------2---------2----------------2-----------2------------|
A|---------------------------------------------------------------------------|
E|---5-4-3-2-----5-4-3-2-------0-2----------5-4-3-2-----5-4-3-2--------------|

e|---------------------------------------------------------------------------|
B|---------------------------------------------------------------------------|
G|---------------------------------------------------------------------------|
D|-----------2-----------2---------2----------------2-----------2------------|
A|---------------------------------------------------------------------------|
E|---5-4-3-2-----5-4-3-2-------0-2----------5-4-3-2-----5-4-3-2--------------|

e|---------------------------------------------------------------------------|
B|---------------------------------------------------------------------------|
G|---------------------------------------------------------------------------|
D|-----------2-----------2---------2----------------2-----------2------------|
A|---------------------------------------------------------------------------|
E|---5-4-3-2-----5-4-3-2-------0-2----------5-4-3-2-----5-4-3-2--------------|

e|---------------------------------------------------------------------------|
B|---------------------------------------------------------------------------|
G|---------------------------------------------------------------------------|
D|----------2-------------2--------2-----------------------------------------|
A|---------------------------------------------------------------------------|
E|--5-4-3-2------5-4-3-2-------0-2-------------------------------------------|

Bridge
"Like A Monster Hides In Your Closet"
e|-------------3--------------3-2--------------------------------------------|
B|----------3-----3---------3-----3-------------5------------3------------3--|
G|-------0----------------0---------0---------3------------0------------0----|
D|------------------------------------------4------------0------------0------|
A|---3----------------2----------------2-0-----------------------------------|
E|----------------------------------------------------5------------4---------|

e|-----------3s5s3-----------2-3-5----------------3--------------------------|
B|-------------------------3---------3----------3---3---------3--------------|
G|-------0---------------0--------------------0-------------0---0------------|
D|--------------------------------------------------------0-----------5-4----|
A|---3----------------2-----------------2-0----------------------------------|
E|------------------------------------------------------5----------4---------|

Chorus
"I Could Talk About Love, I Could Talk About Hate"
e|---------------------------------------------------------------------------|
B|---------------------------------------------------------------------------|
G|---------------------------------------------------------------------------|
D|---5-5-5---4-4-4---4-4-4--------5-5-5---4-4-4---4-4----------2-------------|
A|---5-5-5---5-5-5---5-5-5--------5-5-5---5-5-5---5-5------------------------|
E|---5-5-5---4-4-4---4-4-4--------5-5-5---4-4-4---4-4--5-4-3-2---------------|

e|---------------------------------------------------------------------------|
B|---------------------------------------------------------------------------|
G|---------------------------------------------------------------------------|
D|---5-5-5---4-4-4--------5-5-5---4-4-4---4-4----------2---------------------|
A|---5-5-5---5-5-5--------5-5-5---5-5-5---5-5--------------------------------|
E|---5-5-5---4-4-4--------5-5-5---4-4-4---4-4--5-4-3-2-----------------------|

e|---------------------------------------------------------------------------|
B|---------------------------------------------------------------------------|
G|---------------------------------------------------------------------------|
D|---5-5-5---4-4-4---4-4-4--------5-5-5---4-4-4---4-4----------2-------------|
A|---5-5-5---5-5-5---5-5-5--------5-5-5---5-5-5---5-5------------------------|
E|---5-5-5---4-4-4---4-4-4--------5-5-5---4-4-4---4-4--5-4-3-2---------------|

e|---------------------------------------------------------------------------|
B|---------------------------------------------------------------------------|
G|---------------------------------------------------------------------------|
D|---5-5-5---4-4-4--------5-5-5---4-4-4---4-4----------2---------------------|
A|---5-5-5---5-5-5--------5-5-5---5-5-5---5-5--------------------------------|
E|---5-5-5---4-4-4--------5-5-5---4-4-4---4-4--5-4-3-2-----------------------|

e|---------------------------------------------------------------------------|
B|---------------------------------------------------------------------------|
G|---------------------------------------------------------------------------|
D|---5-5-5---4-4-4---4-4-4--------5-5-5---4-4-4---4-4----------2-------------|
A|---5-5-5---5-5-5---5-5-5--------5-5-5---5-5-5---5-5------------------------|
E|---5-5-5---4-4-4---4-4-4--------5-5-5---4-4-4---4-4--5-4-3-2---------------|

e|---------------------------------------------------------------------------|
B|---------------------------------------------------------------------------|
G|---------------------------------------------------------------------------|
D|---5-5-5---4-4-4--------5-5-5---4-4-4---4-4----------2---------------------|
A|---5-5-5---5-5-5--------5-5-5---5-5-5---5-5--------------------------------|
E|---5-5-5---4-4-4--------5-5-5---4-4-4---4-4--5-4-3-2-----------------------|

e|---------------------------------------------------------------------------|
B|---------------------------------------------------------------------------|
G|---------------------------------------------------------------------------|
D|---5-5-5---4-4-4---4-4-4--------5-5-5---4-4-4---4-4----------2-------------|
A|---5-5-5---5-5-5---5-5-5--------5-5-5---5-5-5---5-5------------------------|
E|---5-5-5---4-4-4---4-4-4--------5-5-5---4-4-4---4-4--5-4-3-2---------------|

e|---------------------------------------------------------------------------|
B|---------------------------------------------------------------------------|
G|---------------------------------------------------------------------------|
D|---5-5-5---4-4-4-----------------------------------------------------------|
A|---5-5-5---5-5-5-----------------------------------------------------------|
E|---5-5-5---4-4-4-----------------------------------------------------------|



Suggest correction
Creating personal tab
Creating personal tab
You can edit any tab online and save it as your Personal.

You can edit, replace or remove any tab part or add personal notes – all changes will be seen only by you.

Personal tabs can be accessed anytime from any device, even offline.
Learn more »
Give kudos to tab author, rate the tab!
1 2 3 4 5
comments
print report bad tab
guest
You may want to rate the tab now too:
select rating
Wanna post a correction for this tab? Suggest correction