Oops, an error
Loading. Please wait.

Death Blooms Bass

version 1
version 1

Whole song

Interactive

24,238 views 12 this week
21 commentsread comments
1 2 3 4 5
x 7
add to favorites
launch autoscroll
font size
0
reset
guitar tuner
×
Best way to learn
"Death Blooms"
Autoscroll
slow
fast
+/-
esc
set tempo
stop
Author
Mudvayne
Death Blooms
L.D. 50
Tabbed By: MrRuD

P=Pop
S=Slap

Alright, there is 'NO' good tab on this site for Death Blooms, so
I deicided to put my tab onto it.  This tab might not be 100% correct,
but it's damn close. I started to correct the otehr Death Blooms tab,
but it wasn't very good, an dI got the correct tuning on this one.
Have fun with this.

Intro  (0:00)
E------------------5-----5-----5----
B--------------------5-----5-----5--  X3
F#---------------------5-----5------
B--3-2-2-3-2-2-2-0------------------

E------------------5-----5---------
B--------------------5-----5-------
F#---------------------5-----0-----
B--3-2-2-3-2-2-2-0-------------3/--

E-----------------------------------
B-----------------------------------  X4
F#----------------------------------
B--0-7-8-0-7-8-0-7-8-0-5-0-3-5-2-0--

E-----------------------------
B-----------------------------
F#----------------------------
B--3/2-0-3\5-0-2\3-------3-2--

1st and 2nd Verses  (0:25, 0:50)
E---------------------------------------------------------
B---------------------------------------------------------
F#--------------------------------------------------------
B--3-2-0-2-3-2-0-2----------2--3-2-0-2-3-2-0-2-------3-2--

E------------------------------------------------------------
B------------------------------------------------------------
F#-----------------------------------------------------------
B--3-2-0-2-3-2-0-2-------2--3-2-0-2-3-2-0-2-3/2-0-3\5-0-2\3--

1st and 2nd Choruses  (0:36, 1:01)
E-----------------------------------
B-----------------------------------  X4
F#-3-2-2-3-2-2-3-2-2-3-2-2-3-2-0-2--
B-----------------------------------

E---------------------------------------------------------------
B---------------------------------------------------------------
F#--------------------------------------------------------------
B--3/2-0-3\5-0-2\3-------3-2---0-7-8-0-7-8-0-7-8-0-5-0-3-5-2-0--

Chorus  (1:14, 3:31)
E------7-----7-----5-----5---3------------------------------------
B----7---7-------5---5--------------------------------------------
F#-5-------5---3-------3---1--------------------------------------
B--------------------------------0-7-8-0-7-8-0-7-8-0-5-0-3-5-2-0--

1st and 3rd time
E------7-----7-----9-----9------10-------------------------------------
B----7---7-------9---9-------10----------------------------------------
F#-5-------5---7-------7---8-------8-----------------------------------
B-------------------------------------0-7-8-0-7-8-0-7-8-0-5-0-3-5-2-0--

2nd and 4th time
E------7-----7-----9-----9-------15--------------------------------------
B----7---7-------9---9--------15-----------------------------------------
F#-5-------5---7-------7---13-------13-----------------------------------
B---------------------------------------0-7-8-0-7-8-0-7-8-0-5-0-3-5-2-0--

This is a bit tricky.       (1:38)
E-----|-------7---7---7---7---7-7--7/--------7---7---7---7---7-7--7--  
B-----|-------8---8---8---8---8-7--7/--------8---8---8---8---8-7--7--  
F#----|--------------------------------------------------------------
B--0--|-0h3-0---0---0---0---0----------0h3-0---0---0---0---0---------  X3
        S   S P S P S P S P S P S  S   S   S P S P S P S P S P S  S

E-------------------------------------------------------
B-----------------------------------------15~--15--15/--
F#------------------------------------------------------
B--3--2-0-2-0-2-3---2-0-2-0--3--2-0-3-0-0---------------

E-----|-------7---7---7---7---7-7--7/--------7---7---7---7---7-7--7--  
B-----|-------8---8---8---8---8-7--7/--------8---8---8---8---8-7--7--  X4
F#----|--------------------------------------------------------------
B--0--|-0h3-0---0---0---0---0----------0h3-0---0---0---0---0---------  
        S   S P S P S P S P S P S  S   S   S P S P S P S P S P S  S

E--7----5----4~-----------------------
B-------------------------------------  X2
F#-5----3----2~-----------------------
B----------------3h0-0-3h0-0-3h0-0-0--

E--7---9----12~-----------------------------
B--7---10---12~-----------------------------
F#-----10-----------------------------------
B----------------------3h0-0-3h0-0-3h0-0-0--

E---------------------------5--
B------------------------------  X4
F#-----------------------------
B--3h0-0-3h0-0-3h0-0-0--0-0----
   S   S S   S S   S S  S S P

(2:53)
E----------------------------10---------------------------12/--
B--------------------------------------------------------------
F#-------------------------------------------------------------
B--3h0-0-3h0-0-3h0-0-0---0-0-----3h0-0-3h0-0-3h0-0-0---0-0-----
   S   S S   S S   S S   S S P   S   S S   S S   S S   S S P

E----------------------------14/-------------------
B--------------------------------------------------
F#-------------------------------------------------
B--3h0-0-3h0-0-3h0-0-0---0-0------3h0-0-3h0-0-3h0--
   S   S S   S S   S S   S S P    S   S S   S S

E--------
B--------
F#-------
B--0~~~--

3rd Pre-Chorus  (3:06)
E-----------------------------------
B-----------------------------------  X4
F#----------------------------------
B--3-2-2-3-2-2-3-2-2-3-2-2-3-2-0-2--
   S S S S S S S S S S S S S S S S

E-----------------------------------
B-----------------------------------  X2
F#----------------------------------
B--0-7-8-0-7-8-0-7-8-0-5-0-3-5-2-0--

E------7-----7-----5-----5---3------------------------------------
B----7---7-------5---5--------------------------------------------
F#-5-------5---3-------3---1--------------------------------------
B--------------------------------0-7-8-0-7-8-0-7-8-0-5-0-3-5-2-0--

E------7-----7-----9-----9------10-------------------------------------
B----7---7-------9---9-------10----------------------------------------
F#-5-------5---7-------7---8-------8-----------------------------------
B-------------------------------------0-7-8-0-7-8-0-7-8-0-5-0-3-5-2-0--

E------7-----7-----5-----5---3------------------------------------
B----7---7-------5---5--------------------------------------------
F#-5-------5---3-------3---1--------------------------------------
B--------------------------------0-7-8-0-7-8-0-7-8-0-5-0-3-5-2-0--

E------7-----7-----9-----9------10----
B----7---7-------9---9-------10-------
F#-5-------5---7-------7---8-------8--
B-------------------------------------

E-------------------
B-------------------
F#------------------
B--3/2-0-3\5-0-2\3--

Outro  (4:13)
E------------------------------------------------5-----------------
B------------------------------------------------------------------
F#-------------------------------------------0-0-------------------
B--0-0----0----0----0----0---3-2---0----0-----------3-0-0-3-5-0-0--

E------------------------------------5--------------------------------15~~~--
B------------------------------------5---------------------------------------
F#--------------------------------------------------------------------15~~~--
B--0----0---0--3/2-3\5---0-0---0---0-----3/2-0-3\5-0-2\3--0-0---0---0--------

This song is the shit.
Suggest correction
comments
print report bad tab
21 comments total. Showing first comments.
+2 reply
suite 30 Sep 30, 2003 08:00 PM

hey xfan2003 you\'re stupid!

0 reply
ambienceofone 10 Jan 04, 2004 07:00 PM

Mudvaynes bassist plays a five string throughout the whole L.D.50 album. I have there concert video, and I've seen them twice.

0 reply
Aaron 2 186 Oct 21, 2005 11:41 AM

well all of your mums are dead...apart from suite...he kjows wot hes talking about coz hes old school! wot a dude!

guest
You may want to rate the tab now too:
select rating
Wanna post a correction for this tab? Suggest correction