Oops, an error
Loading. Please wait.
7,362 views 3 this week
8 commentsread comments
1 2 3 4 5
x 9
add to favorites
×
Save as Personal and add changes to this tab that will be seen only by you. Learn more ›
×
You can save this tab as Personal to edit and correct it or add notes. All changes will be seen only by you. Learn more »
launch autoscroll
font size
0
reset
guitar tuner
edit
Autoscroll
slow
fast
+/-
esc
set tempo
stop
There's one bar in Chorus 3 that's in 2/4 time. Otherwise it's all 4/4.

https://www.youtube.com/watch?v=QoGuueapX3E

[Intro]
    e e q  e e q    e e q  e e q    e e q  e e q    e e q  e e q
E |-----9------9--|-----9------9--|-----9------9--|-----9------9--|
B |-----8------8--|-----8------8--|-----8------8--|-----8------8--|
F#|---------------|---------------|---------------|---------------|
B |-0-0----0-0----|-0-0----0-0----|-0-0----0-0----|-0-0----0-0----|

    e e q  e e q    e e q  e e q    e e q  e e q    e e q  e e q
E |-----3/-----9\-|-----3/-----9\-|-----3/-----9\-|-----3/-----9\-|
B |-----2/-----8\-|-----2/-----8\-|-----2/-----8\-|-----2/-----8\-|
F#|---------------|---------------|---------------|---------------|
B |-0-0----0-0----|-0-0----0-0----|-0-0----0-0----|-0-0----0-0----|

    s s e q s s s s s s s s   s s e q s s s s s s s s   s s e q s s s s s s s s   s s e q  e e q
E |-------------------------|-------------------------|-------------------------|--------------9\-|
B |-------------------------|-------------------------|-------------------------|--------------8\-|
F#|-------------------------|-------------------------|-------------------------|-----------------|
B |-2h3-2---0-0-2-2-3-3-0-0-|-2h3-2---0-0-2-2-3-3-0-0-|-2h3-2---0-0-2-2-3-3-0-0-|-2h3-2-3/-0-0----|

[Chorus]
    s s e q s s s s s s s s   s s e q s s s s s s s s   s s e q s s s s s s s s   s s e q  e e q
E |-------------------------|-------------------------|-------------------------|--------------9\-|
B |-------------------------|-------------------------|-------------------------|--------------8\-|
F#|-------------------------|-------------------------|-------------------------|-----------------|
B |-2h3-2---0-0-2-2-3-3-0-0-|-2h3-2---0-0-2-2-3-3-0-0-|-2h3-2---0-0-2-2-3-3-0-0-|-2h3-2-3/-0-0----|

    s s e q s s s s s s s s   s s e q s s s s s s s s   s s e q s s s s s s s s   s s e q  e e q
E |-------------------------|-------------------------|-------------------------|--------------9\-|
B |-------------------------|-------------------------|-------------------------|--------------8\-|
F#|-------------------------|-------------------------|-------------------------|-----------------|
B |-2h3-2---0-0-2-2-3-3-0-0-|-2h3-2---0-0-2-2-3-3-0-0-|-2h3-2---0-0-2-2-3-3-0-0-|-2h3-2-3/-0-0----|

[Verse]
    s s s s e s s s s s s s s e   s s s s e s s s s s s s s e   s s s s e s s s s s s s s e
E |---------9-------x-----x-----|---------9-------x-----x-----|---------9-------x-----x-----|
B |-----------------------------|-----------------------------|-----------------------------|
F#|-5/7-x-x---x-0h2---x-x-------|-5/7-x-x---x-0h2---x-x-------|-5/7-x-x---x-0h2---x-x-------|
B |-------------------------x-3-|-------------------------x-3-|-------------------------x-3-|

    s s s s s s s s s s s s s s e   s s s s e s s s s s s s s e   s s s s e s s s s s s s s e
E |-------------------x-------9---|---------9-------x-----x-----|---------9-------x-----x-----|
B |---------0h2---0---------------|-----------------------------|-----------------------------|
F#|-----------------x---5/7-x-----|-5/7-x-x---x-0h2---x-x-------|-5/7-x-x---x-0h2---x-x-------|
B |-0h3-x-x-----x---------------8-|-------------------------x-3-|-------------------------x-3-|

    s s s s e s s s s s s s s e   s s s s s s s s s s s s s s e
E |---------9-------x-----x-----|---------0---------------------|
B |-----------------------------|-----------2---0---8-----7-----|
F#|-5/7-x-x---x-0h2---x-x-------|-------------------------------|
B |-------------------------x-3-|-0h3-x-x-----x---x---x-x---x-0-|

[Chorus 2]
    s s e q s s s s s s s s   s s e q s s s s s s s s   s s e q s s s s s s s s   s s e q  e e q
E |-------------------------|-------------------------|-------------------------|--------------9\-|
B |-------------------------|-------------------------|-------------------------|--------------8\-|
F#|-------------------------|-------------------------|-------------------------|-----------------|
B |-2h3-2---0-0-2-2-3-3-0-0-|-2h3-2---0-0-2-2-3-3-0-0-|-2h3-2---0-0-2-2-3-3-0-0-|-2h3-2-3/-0-0----|

    s s e q s s s s s s s s   s s e q s s s s s s s s   s s e q s s s s s s s s   s s e q  e e q
E |-------------------------|-------------------------|-------------------------|--------------9\-|
B |-------------------------|-------------------------|-------------------------|--------------8\-|
F#|-------------------------|-------------------------|-------------------------|-----------------|
B |-2h3-2---0-0-2-2-3-3-0-0-|-2h3-2---0-0-2-2-3-3-0-0-|-2h3-2---0-0-2-2-3-3-0-0-|-2h3-2-3/-0-0----|

[Verse 2]
    s s s s e s s s s s s s s e   s s s s e s s s s s s s s e   s s s s e s s s s s s s s e
E |---------9-------x-----x-----|---------9-------x-----x-----|---------9-------x-----x-----|
B |-----------------------------|-----------------------------|-----------------------------|
F#|-5/7-x-x---x-0h2---x-x-------|-5/7-x-x---x-0h2---x-x-------|-5/7-x-x---x-0h2---x-x-------|
B |-------------------------x-3-|-------------------------x-3-|-------------------------x-3-|

    s s s s s s s s e  q   e   s s s s e s s s s s s s s e   s s s s e s s s s s s s s e
E |----------------/16-12----|---------9-------x-----x-----|---------9-------x-----x-----|
B |---------2p0--------------|-----------------------------|-----------------------------|
F#|--------------------------|-5/7-x-x---x-0h2---x-x-------|-5/7-x-x---x-0h2---x-x-------|
B |-0h3-x-x-----x-x--------0-|-------------------------x-3-|-------------------------x-3-|

    s s s s e s s s s s s s s s  s    e s s s s s s s s s s s s e
E |---------9-------x-----x---12/14-|---------x-------x-----x-----|
B |---------------------------12/14-|-----------------------------|
F#|-5/7-x-x---x-0h2---x-x-----------|---5/7-x---x-x-x---x-x---x---|
B |-------------------------x-------|---------------------------0-|

[Chorus 3]
    s s e q s s s s s s s s   s s e q s s s s s s s s   s s e q s s s s s s s s   s s e q  e e q
E |-------------------------|-------------------------|-------------------------|--------------9\-|
B |-------------------------|-------------------------|-------------------------|--------------8\-|
F#|-------------------------|-------------------------|-------------------------|-----------------|
B |-2h3-2---0-0-2-2-3-3-0-0-|-2h3-2---0-0-2-2-3-3-0-0-|-2h3-2---0-0-2-2-3-3-0-0-|-2h3-2-3/-0-0----|

    s s e q s s s s s s s s   s s e q s s s s s s s s   s s e q s s s s s s s s   s s e q
E |-------------------------|-------------------------|-------------------------|--------------|
B |-------------------------|-------------------------|-------------------------|--------------|
F#|-------------------------|-------------------------|-------------------------|--------------|
B |-2h3-2---0-0-2-2-3-3-0-0-|-2h3-2---0-0-2-2-3-3-0-0-|-2h3-2---0-0-2-2-3-3-0-0-|-2h3-2-14\----|

    |--triplets--|  
E |----------------|
B |-7-8-9-12-11-10-|
F#|-5-6-7-10-9--8--|
B |----------------|

[Bridge]
    s s e q q q   s s e q q q   s s e q q q   s s e q q q 
E |-------------|-------------|-------------|-------------|
B |-------------|-------------|-------------|-------------|
F#|-------------|-------------|-------------|-------------|
B |-2h3-2-------|-2h3-2-------|-2h3-2-------|-2h3-2-------|

    s s e e e e e s s s s   s s e e e e e s s s s   s s e e e e e s s s s   s s e e e e e s s s s 
E |---------x---x-x-x-x-x-|---------x---x-x-x-x-x-|---------x---x-x-x-x-x-|---------x---x-x-x-x-x-|
B |---------x---x-x-x-x-x-|---------x---x-x-x-x-x-|---------x---x-x-x-x-x-|---------x---x-x-x-x-x-|
F#|---------x---x-x-x-x-x-|---------x---x-x-x-x-x-|---------x---x-x-x-x-x-|---------x---x-x-x-x-x-|
B |-2h3-2---x---x-x-x-x-x-|-2h3-2---x---x-x-x-x-x-|-2h3-2---x---x-x-x-x-x-|-2h3-2---x---x-x-x-x-x-|

    s s e q s s e q   s s e e s s e e   s s e q s s e q   s s e q s s e q
E |-----------------|-----------------|-------3-------3-|-------3-------3-|
B |-----------------|-----------------|-------2-------2-|-------2-------2-|
F#|-----------------|-----------------|-----------------|-----------------|
B |-2-2-2---2-2-2---|-2-2-2---2-2-2---|-2-2-----2-2-----|-2-2-----2-2-----|

    s s e q  s s e q    s s e q  s s e q    e e s s e e s s e e   s s e e s s e e s s e 
E |-------3/-------3/-|-------3/-------9\-|---------------------|-----------------------|
B |-------2/-------2/-|-------2/-------8\-|---------------------|-----------------------|
F#|-------------------|-------------------|---------------------|-----------------------|
B |-2-2------2-2------|-2-2------2-2------|-2-2-5h6-5---5h6-5---|-5h6-5---5h6-5---5h6-5-|

    e e s s e e s s e e   s s e e s s e e s  s  e    e e s s e e s s e e   s s e e s s e e s s e
E |---------------------|--------------------------|---------------------|-----------------------|
B |---------------------|--------------------------|---------------------|-----------------------|
F#|---------------------|--------------------10----|---------------------|-----------------------|
B |-2-2-5h6-5---5h6-5---|-5h6-5---5h6-5-2/10----10-|-2-2-5h6-5---5h6-5---|-5h6-5---5h6-5---5h6-5-|

    |--triplets--|
E |-7-8-9-12-11-10-|
B |-7-8-9-12-11-10-|
F#|-5-6-7-10-9--8--|
B |----------------|

[Chorus 4]
    s s e q s s s s s s s s   s s e q s s s s s s s s   s s e q s s s s s s s s   s s e q  e e q
E |-------------------------|-------------------------|-------------------------|--------------9\-|
B |-------------------------|-------------------------|-------------------------|--------------8\-|
F#|-------------------------|-------------------------|-------------------------|-----------------|
B |-2h3-2---0-0-2-2-3-3-0-0-|-2h3-2---0-0-2-2-3-3-0-0-|-2h3-2---0-0-2-2-3-3-0-0-|-2h3-2-3/-0-0----|

    s s e q s s s s s s s s   s s e q s s s s s s s s   s s e q s s s s s s s s   s s e q  e e q
E |-------------------------|-------------------------|-------------------------|--------------9\-|
B |-------------------------|-------------------------|-------------------------|--------------8\-|
F#|-------------------------|-------------------------|-------------------------|-----------------|
B |-2h3-2---0-0-2-2-3-3-0-0-|-2h3-2---0-0-2-2-3-3-0-0-|-2h3-2---0-0-2-2-3-3-0-0-|-2h3-2-3/-0-0----|

[Outro] 
    s s e q s s s s s s s s   s s e q s s e q   s s s s s s s s s s e q   s s s s s s s s s s e q
E |-------------------------|-----------------|-------------------------|-------------------------|
B |-------------------------|-----------------|-------------------------|-------------------------|
F#|-------------------------|-----------------|-------------------------|-------------------------|
B |-2h3-2---0-0-2-2-3-3-0-0-|-2h3-2---0-3-2---|-0-0-2-2-3-3-0-0-2h3-2---|-0-0-2-2-3-3-0-0-2h3-2---|

    s s s s s s s s s s e q    e e q  h
E |--------------------------|-----9\---|
B |--------------------------|-----8\---|
F#|--------------------------|----------|
B |-0-0-2-2-3-3-0-0-2h3-2-3/-|-0-0------|

************************************

| x   Dead note
| h   Hammer-on
| p   Pull-off
| /   Slide up
| \   Slide down

************************************

            
            
Suggest correction
Creating personal tab
Creating personal tab
You can edit any tab online and save it as your Personal.

You can edit, replace or remove any tab part or add personal notes – all changes will be seen only by you.

Personal tabs can be accessed anytime from any device, even offline.
Learn more »
comments
print report bad tab
8 comments total. Showing first comments.
-2 reply
ambienceofone 10 Jan 04, 2004 07:00 PM

You can't be 99% corect, because not paying attention to the fact that he plays a five string is a BIG MISTAKE. Especially if you've seen any of there live videos.

+1 reply
bass_emagdnim 200 May 29, 2006 01:58 PM

True... but if you havent got yourself a 5 string bass (yet!) then this is a great tab. a tricky song to play on any bass.

0 reply
j0n0j0n0 92 Jan 13, 2007 07:09 PM

Abbienceofone your a tool man. He may use a five string but its still tuned to F#,B,F#,B,E which he doesnt use the F# string for anything that can't be played on the B String and don't keep posting it on every tab. This is a pretty good tab mate still some of the verse is a bit sketchy but it is really hard to get all the ghost notes in the write place. Thx

guest
You may want to rate the tab now too:
select rating
Wanna post a correction for this tab? Suggest correction