Oops, an error
Loading. Please wait.

Dull Boy tab

version 3
version 3

Whole song

Interactive

1,485 views 6 this week
1 commentread comment
1 2 3 4 5
2 more votes to show rating
add to favorites
×
Save as Personal and add changes to this tab that will be seen only by you. Learn more ›
×
You can save this tab as Personal to edit and correct it or add notes. All changes will be seen only by you. Learn more »
launch autoscroll
font size
0
reset
how to read this tab
guitar tuner
edit
Autoscroll
slow
fast
+/-
esc
set tempo
stop
Author
Artist:Mudvayne
Song:Dull Boy
Album:The New Game
Tuning:Drop C(C,G,c,F,A,d)
Tabber:goshmusic




Intro

d|-------------------------------------------------------------------|
A|-------------------------------------------------------------------|
F|-------------------------------------------------------------------|
C|-------------------------------------------------------------------| X4
G|2-2-222--2-2-222--222-2-2--222-2-2-2-2-222-2-2-222-222-2-2-222-222-|
C|2-2-222--2-2-222--222-2-2--222-2-2-2-2-222-2-2-222-222-2-2-222-222-|
PM..................................................................


Pre-chorus

d|---------------------------------------------------------------------|
A|---------------------------------------------------------------------|
F|---------------------------------------------------------------------|
C|3\2-------------4\3-------------6\5----------------------------------| x2
G|3\2-3\2-5h0-3h2-2\1-3\2-0h2-3h5-6\5-6\5-8h6-6h5-3-3-3-----2-2-2------|
C|----3\2-5h0-3h2-----3\2-0h2-3h5-----6\5-8h6-6h5------5-5-5-----4-4-4-|
                                                  |_ _||_ _||_ _||_ _|  
                                                    3    3    3    3 
                                                PM....................


Chorus

d|----------------------------------|
A|----------------------------------|
F|----------------------------------|
C|555555555-55557754444444477777777-| X4
G|333333333\55555552222222255555555-|
C|222222223\55500552222222244444444-|


Verse


d|-------------------------------------------------------------------|
A|-------------------------------------------------------------------|
F|-------------------------------------------------------------------|
C|-------------------------------------------------------------------| X5
G|2-2-222--2-2-222--222-2-2--222-2-2-2-2-222-2-2-222-222-2-2-222-222-|
C|2-2-222--2-2-222--222-2-2--222-2-2-2-2-222-2-2-222-222-2-2-222-222-|
PM..................................................................



Chorus

d|----------------------------------|
A|----------------------------------|
F|----------------------------------|
C|555555555-55557754444444477777777-| X4
G|333333333\55555552222222255555555-|
C|222222223\55500552222222244444444-|



Pre-chorus

d|---------------------------------------------------------------------|
A|---------------------------------------------------------------------|
F|---------------------------------------------------------------------|
C|3\2-------------4\3-------------6\5----------------------------------| x1
G|3\2-3\2-5h0-3h2-2\1-3\2-0h2-3h5-6\5-6\5-8h6-6h5-3-3-3-----2-2-2------|
C|----3\2-5h0-3h2-----3\2-0h2-3h5-----6\5-8h6-6h5------5-5-5-----4-4-4-|
                                                  |_ _||_ _||_ _||_ _|  

                                                    3    3    3    3 
                                                PM....................


Bridge(clean guitar)


d|--------------------------------------------------------------------------|
A|--------------------------------------------------------------------------|
F|----------------------------------------------------------------------2---|
C|----5-------5-------4-------4---5-4-2-4-----5-------5-------4-------4-----| 
G|--3-------3-------2-------2---2-----------3-------3-------2-------2-------|
C|2-------2-------2-------2---------------2-------2-------2-------2---------|
                                                                        ^
                                                                      Let it 
  X3                                                                  ring

Now there is a free measure that lets that "2" ring in it



Chorus

d|----------------------------------|
A|----------------------------------|
F|----------------------------------|
C|555555555-55557754444444477777777-| X4
G|333333333\55555552222222255555555-|
C|222222223\55500552222222244444444-|



Bridge (Distortion guitar this time)


d|--------------------------------------------------------------------------|
A|--------------------------------------------------------------------------|
F|----------------------------------------------------------------------2---|
C|----5-------5-------4-------4---5-4-2-4-----5-------5-------4-------4-----| 
G|--3-------3-------2-------2---2-----------3-------3-------2-------2-------|
C|2-------2-------2-------2---------------2-------2-------2-------2---------|
                                                                        
                                                                      
d|--------------------------------------------------------------------------|
A|--------------------------------------------------------------------------|
F|--------------------------------------------------------------------------|
C|----5-------5-------4-------4---5-4-2-4-----5-------5-------4-------------| 
G|--3-------3-------2-------2---2-----------3-------3-------0---------------|
C|2-------2-------2-------2---------------2-------2-------0-----------------|
                                                                        
                                                          ^ ^ ^
                                                          Let these notes 
                                                                ring

That's it
Enjoy!!


            
            
Suggest correction
Creating personal tab
Creating personal tab
You can edit any tab online and save it as your Personal.

You can edit, replace or remove any tab part or add personal notes – all changes will be seen only by you.

Personal tabs can be accessed anytime from any device, even offline.
Learn more »
Give kudos to tab author, rate the tab!
1 2 3 4 5
comments
print report bad tab
1 comment total.
0 reply
goshmusic 61 Jun 17, 2009 01:29 AM

ok people after submiting this tab i discovered a small mistake i did in the chorus. It was more like a typo mistake but here it is corrected.

Chorus

d|----------------------------------|
A|----------------------------------|
F|----------------------------------|
C|555555555-55577554444444477777777-|
G|333333333\55555552222222255555555-|
C|222222223\55500552222222244444444-|

guest
You may want to rate the tab now too:
select rating
Wanna post a correction for this tab? Suggest correction