Oops, an error
Loading. Please wait.

Dull Boy tab

version 4
version 4

Whole song

Interactive

3,018 views 1 this week
3 commentsread comments
1 2 3 4 5
2 more votes to show rating
add to favorites
×
Save as Personal and add changes to this tab that will be seen only by you. Learn more ›
×
You can save this tab as Personal to edit and correct it or add notes. All changes will be seen only by you. Learn more »
launch autoscroll
font size
0
reset
how to read this tab
guitar tuner
edit
Autoscroll
slow
fast
+/-
esc
set tempo
stop
Ok this tab is not 100% correct
so if you find corrections email me
bloodyguts@gmail.com i had a hard time
hearing riff 1 but its close
the tab parts dont tell you how many 
times to play each riff but it is timed
to the cd version of the song and the 
repeated riffs are repeated in the tab 
but its the whole song in order
so Enjoy! 

h = hammer on
p = pull off
\ = slide
PM. = palm mute (. = how long palm muted)



intro/verse  0:13-0:39

e:-------------------------------------------------------------------------|
B:-------------------------------------------------------------------------|
G:-------------------------------------------------------------------------|
D:-------------------------------------------------------------------------|
A:-------------------------------------------------------------------------|
D:-2-2----2-2-2--2-2----2-2-2--2-2-2--2-2----2-2-2-------------------------|
  PM..............................................


Riff 1 0:40-0:54

e:-------------------------------------------------------------------------|
B:-------------------------------------------------------------------------|
G:-------------------------------------------------------------------------|
D:-------------------------------------------------------------------------|
A:-4\3-0h2-3p2-0h2--4\3-0h2-3p2-0h2--6\5-0h5-6p5-0h5-----4-----3-----------|
D:-4\3-0h2-3p2-0h2--4\3-0h2-3p2-0h2--6\5-0h5-6p5-0h5-4-4---3-3-------------|
                                                     PM..........


Chorus 0:55-1:20

e:-------------------------------------------------------------------------|
B:-------------------------------------------------------------------------|
G:----------------------------------2-2-2----------------------------------|
D:-5--5--5-5-5--5\6\5--4--4--4-4-4--4-4-4----------------------------------|
A:-3--3--3-3-3--3\6\5--2--2--2-2-2-----------------------------------------|
D:-3--3--3-3-3--3\6\5--2--2--2-2-2-----------------------------------------|


Verse 2 1:21-1:54

e:-------------------------------------------------------------------------|
B:-------------------------------------------------------------------------|
G:-------------------------------------------------------------------------|
D:-------------------------------------------------------------------------|
A:-------------------------------------------------------------------------|
D:-2-2----2-2-2--2-2----2-2-2--2-2-2--2-2----2-2-2-------------------------|
   PM.............................................


Riff 1 Again 1:55-2:01

e:-------------------------------------------------------------------------|
B:-------------------------------------------------------------------------|
G:-------------------------------------------------------------------------|
D:-------------------------------------------------------------------------|
A:-4\3-0h2-3p2-0h2--4\3-0h2-3p2-0h2--6\5-0h5-6p5-0h5-----4-----3-----------|
D:-4\3-0h2-3p2-0h2--4\3-0h2-3p2-0h2--6\5-0h5-6p5-0h5-4-4---3-3-------------|
                                                     PM..........


Chorus 2 2:02-2:28

e:-------------------------------------------------------------------------|
B:-------------------------------------------------------------------------|
G:----------------------------------2-2-2----------------------------------|
D:-5--5--5-5-5--5\6\5--4--4--4-4-4--4-4-4----------------------------------|
A:-3--3--3-3-3--3\6\5--2--2--2-2-2-----------------------------------------|
D:-3--3--3-3-3--3\6\5--2--2--2-2-2-----------------------------------------|


Riff 2 2:29-3:08 

e:-------------------------------------------------------------------------|
B:-------------------------------------------------------------------------|
G:-------------------------------------------------------------------------|
D:-----5------5------4------4--5-4-2-4-------------------------------------|
A:---2------2------2------2------------------------------------------------|
D:-2------2------2------2--------------------------------------------------|


Fill in Riff 2 2:42-3:08

e:-------------------------------------------------------------------------|
B:-11--14-13-11h13--11-----------------------------------------------------|
G:-11--11-11-11-11--11-----------------------------------------------------|
D:-------------------------------------------------------------------------|
A:-------------------------------------------------------------------------|
D:-------------------------------------------------------------------------|


Chorus 3 3:10-3:35

e:-------------------------------------------------------------------------|
B:-------------------------------------------------------------------------|
G:----------------------------------2-2-2----------------------------------|
D:-5--5--5-5-5--5\6\5--4--4--4-4-4--4-4-4----------------------------------|
A:-3--3--3-3-3--3\6\5--2--2--2-2-2-----------------------------------------|
D:-3--3--3-3-3--3\6\5--2--2--2-2-2-----------------------------------------|


Riff 2 Again 3:36-4:00

e:-------------------------------------------------------------------------|
B:-------------------------------------------------------------------------|
G:--------------------------------------2----------------------------------|
D:-----5------5------4------4--5-4-2-4--0----------------------------------|
A:---2------2------2------2------------------------------------------------|
D:-2------2------2------2--------------------------------------------------|


Well thats it thanks again.

Tabbed By Jeremy Osterloh

            
            
Suggest correction
Creating personal tab
Creating personal tab
You can edit any tab online and save it as your Personal.

You can edit, replace or remove any tab part or add personal notes – all changes will be seen only by you.

Personal tabs can be accessed anytime from any device, even offline.
Learn more »
Give kudos to tab author, rate the tab!
1 2 3 4 5
comments
print report bad tab
3 comments total.
0 reply
mudvayne2005 301 Mar 12, 2008 09:08 AM

this song is in drop c

0 reply
slipknot1991 30 May 08, 2008 02:15 PM

dumbass the song is in drop c

0 reply
dylankrolick 10 Jun 25, 2009 03:33 PM

horrible tab intro/verse has alot more notes parts of Riff 1 should be on the 5th and 4th

guest
Wanna post a correction for this tab? Suggest correction