Oops, an error
Loading. Please wait.

Happy bass

version 4
version 4

Whole song

13 views 6 this week
no commentswrite comment
1 2 3 4 5
2 more votes to show rating
add to favorites
×
Save as Personal and add changes to this tab that will be seen only by you. Learn more ›
×
You can save this tab as Personal to edit and correct it or add notes. All changes will be seen only by you. Learn more »
launch autoscroll
font size
0
reset
guitar tuner
backing track
0:00
0:00
edit
Autoscroll
slow
fast
+/-
esc
set tempo
stop
About this tab version
Transcribed from CoverSolutions, video link in tab. Was this info helpful? Yes No
https://www.youtube.com/watch?v=Mc55xLlWG5M

[Intro] x2
   s s s s  q   Q  s e.   s s s s  q   E. s s e.    s s s s  q   E  s s s e.    s s s s  e. s s s s s e
F|----------------------|-------------------------|---------------------------|-------------------------|
C|----------------------|-------------------------|---------------------------|-------------------------|
G|----------------------|-------------------------|---------------------------|-------------------------|
C|-5-5-5-5-(5)\----5-7--|-8-8-8-8-(8)\----0-8-10--|-3-3-3-3-(3)\----0-0-3-5\--|-1-1-1-0--1--0-1-0-1/3-3-|

[Verse]
F|--------|--------|--------|--------|
C|--------|--------|--------|--------|
G|--------|--------|--------|--------|
C|--------|--------|--------|--------|

   q.  q s q  e    q.  q  e e  se.    q.  q  e e se.    e. e. e. s e ss e
F|--------------|-------------------|-----------------|-------------------|
C|--------------|-------------------|-----------------|----------0/1-0----|
G|-----5--------|------8--8h10p8----|-----3--3h5p3----|---------------1---|
C|-5-----x-5--5-|-/8------------8---|-3-----------3---|-1--0--1---------3-|

   s s s s s s s s s s s s s s s  s   s s s s s s s s s s s s s s  e   s s s s s s s s s s s s s s s s 
F|----------------------------------|--------------------------------|---------------------------------|
C|----------------------------------|--------------------------------|---------------------------------|
G|----------------------------------|-1-1-1-1-1-1-1-1-1-1-1-1-3-1--3-|-----------------------------5-3-|
C|-5-5-5-5-5-5-5-5-5-5-5-5-5-7-10-8-|--------------------------------|-3-3-3-3-3-3-3-3-3-3-3-3-3-3-----|

   s s s s e e   s s s s s s s s   
F|-------------------------------|
C|-------------------2-----------|
G|-------------------------------|
C|-2-2-2-2---14\-2-2---2-3-3-3-3-|

[Pre Chorus]
   s s s s  q   Q s e.   s s s s  q  E. s s e.    s s s s  q  E s s s e.    s s s e e e   s s s s s s s s
F|---------------------|------------------------|-------------------------|-------------------------------|
C|---------------------|------------------------|-------------------------|-------------------2-----3-----|
G|---------------------|------------------------|-------------------------|-------------------------------|
C|-5-5-5-5-(5)\---5-7--|-8-8-8-8-(8)\---0-8-10--|-3-3-3-3-(3)\--0-0-3-5\--|-2-2-2-2---14\-2-2---2-3---3-3-|

[Chorus]
   s s s s S s s s s s s s s s s s   s s s s S s  s  s  s  s s s s s  e   s s s s S s s s s s s s s s e
F|-----------7-7-7-7-X-X-X---------|-----------10-10-10-10-X-X-X--------|-----------5-5-5-5-X-X---------|
C|-5-5-5-5-----------------5/7-5/7-|-8-8-8-8---------------------8/10-8-|-3-3-3-3---------------3-3/5-3-|
G|-----------5-5-5-5-X-X-X---------|-----------8--8--8--8--X-X-X--------|-----------3-3-3-3-X-X---------|
C|-5-5-5-5-----------------5/7-5/7-|-8-8-8-8---------------------8/10-8-|-3-3-3-3---------------3-3/5-3-|
        
   s s s s e e. s s s s s e   s s s s S s s s s s s s s s s s   s s s s S s  s  s  s   s s s s s  e 
F|--------------------------|-----------7-7-7-7/8-X-X---------|-----------10-10-10-10/12------------|
C|-1-1-1-0---1--0-1-0-1/3-3-|-5-5-5-5-----------------5/7-5/7-|-8-8-8-8------------------X-X-8/10-8-|
G|--------------------------|-----------5-5-5-5/6-X-X---------|-----------8--8--8--8-/10------------|
C|-1-1-1-0---1--0-1-0-1/3-3-|-5-5-5-5-----------------5/7-5/7-|-8-8-8-8------------------X-X-8/10-8-|

   s s s s S s s s s s s s s s e   s s s s e. e. s s s s s e
F|-----------5-5-5-5-X-X---------|---------------------------|
C|-3-3-3-3---------------3-3/5-3-|-1-1-1-0----1--0-1-0-1/3-3-|
G|-----------3-3-3-3-X-X---------|---------------------------|
C|-3-3-3-3---------------3-3/5-3-|-1-1-1-0----1--0-1-0-1/3-3-|

[Verse 2]
   s s s s s s s s s s s s s s s  s   s s s s s s s s s s s s s s s s   s s s s s s s s s s s s s s e 
F|----------------------------------|---------------------------------|-------------------------------|
C|----------------------------------|-----------------------------3---|-------------------------------|
G|----------------------------------|-1-1-1-1-1-1-1-1-1-1-1-1-3-5---5-|-------------------------3h5-3-|
C|-5-5-5-5-5-5-5-5-5-5-5-5-5-7-10-8-|---------------------------------|-3-3-3-3-3-3-3-3-3-3-3-3-------|

   s s s s e e   s s s s s s s s   s s s s s s s s s s s s s s s  s   s s s s s s s s s s s s s s s s 
F|-------------------------------|----------------------------------|---------------------------------|
C|-------------------2-----3-----|----------------------------------|-----------------------------3---|
G|-------------------------------|----------------------------------|-1-1-1-1-1-1-1-1-1-1-1-1-3-5---5-|
C|-2-2-2-2---14\-2-2---2-2---3-3-|-5-5-5-5-5-5-5-5-5-5-5-5-5-7-10-8-|---------------------------------|

   s s s s s s s s s s s s s s e   s s s s e e   s s s s s s s s 
F|-------------------------------|-------------------------------|
C|-------------------------------|-------------------2-----3-----|
G|-------------------------3h5-3-|-------------------------------|
C|-3-3-3-3-3-3-3-3-3-3-3-3-------|-2-2-2-2---14\-2-2---2-2---3-3-|

[Pre Chorus 2]
   s s s s  q   Q  s e.   s s s s  q   E. s s e.    s s s s  q   s s s s s e.    s s s s e e  s
F|----------------------|-------------------------|----------------------------|-------------------------|
C|----------------------|-------------------------|----------------------------|-------------------------|
G|----------------------|-------------------------|----------------------------|-------------------------|
C|-5-5-5-5-(5)\----5-7--|-8-8-8-8-(8)\----0-8-10--|-3-3-3-3-(3)\-0-0-0-0-3-5\--|-2-2-2-2---14\2----------|

[Chorus 2]
   s s s s S s s s s s s s s s s s   s s s s S s  s  s  s  s s s s s  e   s s s s S s s s s s s s s s e
F|-----------7-7-7-7-X-X-X---------|-----------10-10-10-10-X------------|-----------5-5-5-5-X-X---------|
C|-5-5-5-5-----------------5/7-5/7-|-8-8-8-8-----------------8-8-8/10-8-|-3-3-3-3---------------3-3/5-3-|
G|-----------5-5-5-5-X-X-X---------|-----------8--8--8--8--X------------|-----------3-3-3-3-X-X---------|
C|-5-5-5-5-----------------5/7-5/7-|-8-8-8-8-----------------8-8-8/10-8-|-3-3-3-3---------------3-3/5-3-|
        
   s s s s e e. s s s s s e   s s s s S s s s s s s s s s s s   s s s s S s  s  s  s   s s s s s  e 
F|--------------------------|-----------7-7-7-7/8-7-X---------|-----------10-10-10-10/12------------|
C|-1-1-1-0---1--0-1-0-1/3-3-|-5-5-5-5-----------------5/7-5/7-|-8-8-8-8------------------X-X-8/10-8-|
G|--------------------------|-----------5-5-5-5/6-5-X---------|-----------8--8--8--8-/10------------|
C|-1-1-1-0---1--0-1-0-1/3-3-|-5-5-5-5-----------------5/7-5/7-|-8-8-8-8------------------X-X-8/10-8-|

   s s s s S s s s s s s s s s e   s s s s e. e. s s s s s e
F|-----------5-5-5-5-X-X---------|---------------------------|
C|-3-3-3-3---------------3-3/5-3-|-1-1-1-0----1--0-1-0-1/3-3-|
G|-----------3-3-3-3-X-X---------|---------------------------|
C|-3-3-3-3---------------3-3/5-3-|-1-1-1-0----1--0-1-0-1/3-3-|

[Fill 1]
   e  s s s s e  e  s s s s s s   e. s s s s e  e s s s s e   e. s s s s e  e s s s s e 
F|-7--7-7-8-8-8--7--X-5-5-5-7-X-|---------------------------|---------------------------|
C|------------------------------|-7--7-7-8-8-8--7-X-4-4/5-4-|-4--4-4-5-5-5--4-X-4-4/5-4-|
G|-5--5-5-6-6-6--5--X-3-3-3-5-X-|---------------------------|---------------------------|
C|------------------------------|-7--7-7-8-8-8--7-X-4-4/5-4-|-4--4-4-5-5-5--4-X-4-4/5-4-|

   e  s s s s  e  s s s s s s s s
F|--------------------------------|
C|-0--0-0-0/1--0--0-0-0-1-1-1-3-3-|
G|--------------------------------|
C|-0--0-0-0/1--0--0-0-0-1-1-1-3-3-|

[Verse 3]
   q E s s E e s e.   q E s s E e s e.    q E. s E e s s e   e. e. e.  e. s s e
F|------------------|-------------------|------------------|--------------------|
C|------------------|-------------------|------------------|----------/1--0-----|
G|------------------|-----8-------------|-----/5--/6-5-3---|----------------1---|
C|-5---5-5---5-5-7--|-8-----8---8-8-10\-|-3--------------3-|-1--0--1----------3-|

   q  e s s E e. e s s s   e. s s s s  E e s e.   q  e S s E e s e.   e. e. e.  e. s s e
F|-----------------------|----------------------|-------------------|--------------------|
C|-----------------------|---------------8-7----|-------------------|----------/1--0-----|
G|----5---6---5--5-------|----8----/10-------8\-|----3--/5---3------|----------------1---|
C|-5----5----------5-7-5-|-8----X-X-------------|-3------------3-5--|-1--0--1----------3-|

[Chorus 3]
   s s s s  q   Q  s e.   s s s s  q   E. s s e.    s s s s  q   E  s s s e.    s s s s E e  s s s s s e
F|----------------------|-------------------------|---------------------------|--------------------------|
C|----------------------|-------------------------|---------------------------|--------------------------|
G|----------------------|-------------------------|---------------------------|--------------------------|
C|-5-5-5-5-(5)\----5-7--|-8-8-8-8-(8)\----0-8-10--|-3-3-3-3-(3)\----0-0-3-5\--|-1-1-1-0---1--0-1-0-1/3-3-|

   s s s s  q   Q  s e.   s s s s  q   E. s s e.    s s s s  q   E  s s s e.    s s s s E e  s s s s s e
F|----------------------|-------------------------|---------------------------|--------------------------|
C|----------------------|-------------------------|---------------------------|--------------------------|
G|----------------------|-------------------------|---------------------------|--------------------------|
C|-5-5-5-5-(5)\----5-7--|-8-8-8-8-(8)\----0-8-10--|-3-3-3-3-(3)\----0-0-3-5\--|-1-1-1-0---1--0-1-0-1/3-3-|

   s s s s S s s s s s s s s s s s   s s s s S s  s  s  s  s s s s s  e   s s s s S s s s s s s s s s e
F|-----------7-7-7-7-X-X-X---------|-----------10-10-10-10-X-X-X--------|-----------5-5-5-5-X-X---------|
C|-5-5-5-5-----------------5/7-5/7-|-8-8-8-8---------------------8/10-8-|-3-3-3-3---------------3-3/5-3-|
G|-----------5-5-5-5-X-X-X---------|-----------8--8--8--8--X-X-X--------|-----------3-3-3-3-X-X---------|
C|-5-5-5-5-----------------5/7-5/7-|-8-8-8-8---------------------8/10-8-|-3-3-3-3---------------3-3/5-3-|

   s s s s e e. s s s s s e   s s s s S s s s s s s s s s s s   s s s s S s  s  s  s   s s s s s  e 
F|--------------------------|-----------7-7-7-7/8-7-X---------|-----------10-10-10-10/12------------|
C|-1-1-1-0---1--0-1-0-1/3-3-|-5-5-5-5-----------------5/7-5/7-|-8-8-8-8------------------X-X-8/10-8-|
G|--------------------------|-----------5-5-5-5/6-5-X---------|-----------8--8--8--8-/10------------|
C|-1-1-1-0---1--0-1-0-1/3-3-|-5-5-5-5-----------------5/7-5/7-|-8-8-8-8------------------X-X-8/10-8-|

   s s s s S s s s s s s s s s e   s s s s e s s s s e s e.
F|-----------5-5-5-5-X-X---------|-------------------------|
C|-3-3-3-3---------------3-3/5-3-|-1-1-1-0-----5-----------|
G|-----------3-3-3-3-X-X---------|-----------3---3-3---1---|
C|-3-3-3-3---------------3-3/5-3-|-1-1-1-0---------------3-|

[Outro]
   s s s s s s s e   s s s s s s s   s s s s s  s s e   s  s s s  s s s   s s s s s s s e   s s s s s s s 
F|---------------------------------|------------------------------------|---------------------------------|
C|---------------------------------|------------------------------------|---------------------------------|
G|---------------------------------|------------------------------------|---------------------------------|
C|-5-5-5-5-8-5-0-5---8-5-0-8-5-0-5-|-8-8-8-8-10-8-0-8---10-8-0-10-8-0-8-|-3-3-3-3-5-3-0-3---5-3-0-5-3-0-3-|

   s s s s s s s s s s s s s s s s   s s s s s s s e   s s s s s s s   s s s s s  s s e   s  s s s  s s s
F|---------------------------------|---------------------------------|------------------------------------|
C|---------------------------------|---------------------------------|------------------------------------|
G|---------------------------------|---------------------------------|------------------------------------|
C|-1-1-1-1-1-1-1-1-3-3-3-3-3-3-3-3-|-5-5-5-5-8-5-0-5---8-5-0-8-5-0-5-|-8-8-8-8-10-8-0-8---10-8-0-10-8-0-8-|

   s s s s s s s e   s s s s s s s   s s s s e s s s s e s e.   s s s s h.
F|---------------------------------|--------------------------|----------------|
C|---------------------------------|-------------5------------|----------------|
G|---------------------------------|-----------3---3-3---1----|----------------|
C|-3-3-3-3-5-3-0-3---5-3-0-5-3-0-3-|-1-1-1-1---------------3--|-5-5-5-5--------|

**************************
| \  Slide down
| /  Slide up
| h  Hammer on
| p  Pull off
| X  Dead note
| () Held note

            
            
Suggest correction
Creating personal tab
Creating personal tab
You can edit any tab online and save it as your Personal.

You can edit, replace or remove any tab part or add personal notes – all changes will be seen only by you.

Personal tabs can be accessed anytime from any device, even offline.
Learn more »
Give kudos to tab author, rate the tab!
1 2 3 4 5
comments
print report bad tab
guest
You may want to rate the tab now too:
select rating
Wanna post a correction for this tab? Suggest correction