Oops, an error
Loading. Please wait.

Happy Tab

version 5
4,297 views 3 this week
no commentswrite comment
1 2 3 4 5
x 3
add to favorites
launch autoscroll
font size
0
reset
how to read this tab
guitar tuner
backing track
0:00
0:00
×
Best way to learn
"Happy"
Autoscroll
slow
fast
+/-
esc
set tempo
stop
Author
Difficulty
  follow
intermediate
Artist: MuDvAyNe
Song: Happy?
Tabber: Jono 

 Intro
  Q=105
  Gm      N.C.                      Bbsus2      N.C.
 4/4
  Gtrs I, II
|---------------------------------|-------------------------------------|
|---------8-8-8-8-8-8-8-8-8-8-8---|-------------8-8-8-8-8-8-8-8-8-8-8---|
|---------------------------------|-------------------------------------|
|-8-8-8-8-5-5-5-5-5-5-5-5-5-5-5---|-10-10-10-10-5-5-5-5-5-5-5-5-5-5-5-0-|
|-5-5-5-5-----------------------0-|--8--8--8--8-------------------------|
|-5-5-5-5-------------------------|--8--8--8--8-------------------------|


  Fsus2   N.C.                     Eb5            D5EbD5EbF5
                                                  PM--|
|--------------------------------|-----------------------------|
|---------8-8-8-8-8-8-8-8-8-8-8\-|-----------------------------|
|--------------------------------|-----------------------------|
|-5-5-5-5-5-5-5-5-5-5-5-5-5-5-5\-|-1-1-1-1--1-(1)-------1h3-3--|
|-3-3-3-3------------------------|-1-1-1-1--1-(1)-0-1-0-1h3-3--|
|-3-3-3-3------------------------|-1-1-1-1--1-(1)-0-1-0-1h3-3--|


  $$
  Gm      N.C.
  Gtr I
|---------------------------------------------|
|----------8--8--8--8--8--8--8--8--8--8--8----|
|---------------------------------------------|
|-8-8-8-8--5--5--5--5--5--5--5--5--5--5--5----|
|-5-5-5-5-----------------------------------0-|
|-5-5-5-5-------------------------------------|
|
| Gtr II
|---------------------------------------------|
|---------11-11-11-11-11-11-11-11-11-11-11-11-|
|---------------------------------------------|
|-8-8-8-8--8--8--8--8--8--8--8--8--8--8--8--8-|
|-5-5-5-5-------------------------------------|
|-5-5-5-5-------------------------------------|


  Bbsus2      N.C.
|------------------------------------------------|
|--------------8--8--8--8--8--8--8--8--8--8--8---|
|------------------------------------------------|
|-10-10-10-10--5--5--5--5--5--5--5--5--5--5--5-0-|
|--8--8--8--8------------------------------------|
|--8--8--8--8------------------------------------|
|
|------------------------------------------------|
|-------------18-18-18-18-18-18-18-18-18-18\-----|
|------------------------------------------------|
|-10-10-10-10-15-15-15-15-15-15-15-15-15-15\-----|
|--8--8--8--8------------------------------------|
|--8--8--8--8------------------------------------|


                                                                To Dbl. Coda
  Fsus2   N.C.                                   Eb5            D5EbD5EbF5
                                                                PM--|
|----------------------------------------------|-----------------------------|
|---------/8--8--8--8--8--8--8--8--8--8--8\----|-----------------------------|
|----------------------------------------------|-----------------------------|
|-5-5-5-5-/5--5--5--5--5--5--5--5--5--5--5\----|-1-1-1-1--1-(1)-------1h3-3--|
|-3-3-3-3--------------------------------------|-1-1-1-1--1-(1)-0-1-0-1h3-3--|
|-3-3-3-3--------------------------------------|-1-1-1-1--1-(1)-0-1-0-1h3-3--|
|
|                                                               PM--|
|----------------------------------------------|-----------------------------|
|---------15-15-15-15-15-15-15-15-15-15-15--15-|-----------------------------|
|----------------------------------------------|-----------------------------|
|-5-5-5-5-12-12-12-12-12-12-12-12-12-12-12--12-|-1-1-1-1--1-(1)-------1h3-3--|
|-3-3-3-3--------------------------------------|-1-1-1-1--1-(1)-0-1-0-1h3-3--|
|-3-3-3-3--------------------------------------|-1-1-1-1--1-(1)-0-1-0-1h3-3--|


 Verse
  Gmadd11                         Bb5
  Gtr III
|-------------------------------|-----------------------------------------|
|-------------------------------|-----------------------------------------|
|-------5-(5)-------------5-----|-------10-(10)-------------10-(10)-(10)\-|
|-----8-------8---------8---8---|-----8---------8---------8------8--------|
|---5-----------5-(5)---------5-|---8-------------8-(8)---------------8---|
|-5-------------------5---------|-8---------------------8-----------------|


  F5                              Eb5
|-------------------------------|-------------------------------|
|-------------------------------|-------------------------------|
|-------5-(5)-------------5-----|-------3-(3)-------------3-----|
|-----3-------3---------3---3---|-----1-------1---------1---1---|
|---3-----------3-(3)---------3-|---1-----------1-(1)---------1-|
|-3-------------------3---------|-1-------------------1---------|


  Gmadd11                         Bb5
  Gtr III
|-------------------------------|-----------------------------------|
|-------------------------------|-----------------------------------|
|-------5-(5)-------------5-----|--------10-(10)-------------10-----|
|-----8-------8---------8---8---|------8---------8---------8----8---|
|---5-----------5-(5)---------5-|----8-------------8-(8)----------8-|
|-5-------------------5---------|--8---------------------8----------|
|
| Gtr IV
|-------------------------------|-----------------------------------|
|-------------------------------|-----------------------------------|
|-------------------------------|-/7---------------5-(5)------------|
|-5-----------------------------|-/8---------------7-(7)------8-----|
|-------------------------------|-----------------------------------|
|-------------------------------|-----------------------------------|


  F5                              Eb5
|-------------------------------|-------------------------------|
|-------------------------------|-------------------------------|
|-------5-(5)-------------5-----|-------3-(3)-------------3-----|
|-----3-------3---------3---3---|-----1-------1---------1---1---|
|---3-----------3-(3)---------3-|---1-----------1-(1)---------1-|
|-3-------------------3---------|-1-------------------1---------|
|
|-------------------------------|-------------------------------|
|-------------------------------|-------------------------------|
|-2-----------------------------|-0-----------------------------|
|-3-----------------------------|-1-----------------------------|
|-------------------------------|-------------------------------|
|-------------------------------|-------------------------------|


  (Gm)                    (Gm/A)    (Bb5)
  Gtr I
  PM--------------------------------------------------------------|
|---------------------------------|---------------------------------|
|---------------------------------|---------------------------------|
|---------------------------------|---------------------------------|
|-------8-8-8-------8-8-8-----8-8-|-------8-8-8-------8-8-8-----8-8-|
|---------------------------------|---------------------------------|
|-5-5-5-------5-5-5-------7-7-----|-8-8-8-------8-8-8-------8-8-----|


  (Fsus2)                           (Fsus2/E)               (Fsus2)
  PM--------------------------------------------------------------|
|---------------------------------|---------------------------------|
|---------------------------------|---------------------------------|
|---------------------------------|---------------------------------|
|-------5-5-5-------5-5-5-----5-5-|-------5-5-5-------5-5-5-----5-5-|
|---------------------------------|---------------------------------|
|-3-3-3-------3-3-3-------3-3-----|-2-2-2-------2-2-2-------3-3-----|


  (Gm)                    (Gm/A)    (Bb5)
  Gtr II
|-------------5-5-5---------------|-------------5-5-5---------------|
|-------6-6-6-------6-6-6-----6-6-|-------------------6-6-6-----6-6-|
|-7-7-7-------------------7-7-----|-------7-7-7---------------------|
|---------------------------------|-8-8-8-------------------8-8-----|
|---------------------------------|---------------------------------|
|---------------------------------|---------------------------------|
|
| Gtr I
| PM--------------------------------------------------------------|
|---------------------------------|---------------------------------|
|---------------------------------|---------------------------------|
|---------------------------------|---------------------------------|
|-------8-8-8-------8-8-8-----8-8-|-------8-8-8-------8-8-8-----8-8-|
|---------------------------------|---------------------------------|
|-5-5-5-------5-5-5-------7-7-----|-8-8-8-------8-8-8-------8-8-----|


  (Fsus2)                           (Fsus2/E)               (Fsus2)
|-------------5-5-5---------------|---------------------------------|
|-------------------6-6-6-----6-6-|-------------8-8-8-------8-8-8-8-|
|-------7-7-7---------------------|-------7-7-7-------7-7-7---------|
|-7-7-7-------------------7-7-----|---------------------------------|
|---------------------------------|-7-7-7---------------------------|
|---------------------------------|---------------------------------|
|
| PM----------------------------|
|---------------------------------|---------------------------------|
|---------------------------------|---------------------------------|
|---------------------------------|---------------------------------|
|-------5-5-5-------5-5-5-----5-5-|-------5-5-5-------5-5-5-----5-5-|
|---------------------------------|---------------------------------|
|-3-3-3-------3-3-3-------3-3-----|-2-2-2-------2-2-2-------3-3-----|


   Chorus
    $
    Gm      N.C.
||----------------------------------------------|
||o---------11-11-11-11-11-11-11-11-11-11-11-11-|
||----------------------------------------------|
||--8-8-8-8--8--8--8--8--8--8--8--8--8--8--8--8-|
||o-5-5-5-5-------------------------------------|
||--5-5-5-5-------------------------------------|
|
||----------------------------------------------|
||o----------8--8--8--8--8--8--8--8--8--8--8----|
||----------------------------------------------|
||--8-8-8-8--5--5--5--5--5--5--5--5--5--5--5----|
||o-5-5-5-5-----------------------------------0-|
||--5-5-5-5-------------------------------------|


  Bbsus2      N.C.
|------------------------------------------------|
|-------------18-18-18-18-18-18-18-18-18-18\-----|
|------------------------------------------------|
|-10-10-10-10-15-15-15-15-15-15-15-15-15-15\-----|
|--8--8--8--8------------------------------------|
|--8--8--8--8------------------------------------|
|
|------------------------------------------------|
|--------------8--8--8--8--8--8--8--8--8--8--8---|
|------------------------------------------------|
|-10-10-10-10--5--5--5--5--5--5--5--5--5--5--5-0-|
|--8--8--8--8------------------------------------|
|--8--8--8--8------------------------------------|


                                                                     To Coda
  Fsus2   N.C.                                   Eb5            D5EbD5EbF5
                                                                PM--|
|----------------------------------------------|------------------------------||
|---------15-15-15-15-15-15-15-15-15-15-15--15-|-----------------------------o||
|----------------------------------------------|------------------------------||
|-5-5-5-5-12-12-12-12-12-12-12-12-12-12-12--12-|-1-1-1-1--1-(1)-------1h3-3---||
|-3-3-3-3--------------------------------------|-1-1-1-1--1-(1)-0-1-0-1h3-3--o||
|-3-3-3-3--------------------------------------|-1-1-1-1--1-(1)-0-1-0-1h3-3---||
|
|                                                               PM--|
|----------------------------------------------|------------------------------||
|----------8--8--8--8--8--8--8--8--8--8--8\----|-----------------------------o||
|----------------------------------------------|------------------------------||
|-5-5-5-5--5--5--5--5--5--5--5--5--5--5--5\----|-1-1-1-1--1-(1)-------1h3-3---||
|-3-3-3-3--------------------------------------|-1-1-1-1--1-(1)-0-1-0-1h3-3--o||
|-3-3-3-3--------------------------------------|-1-1-1-1--1-(1)-0-1-0-1h3-3---||


   Verse
    (Gm)                    (Gm/A)    (Bb5)
    Gtr I
    PM--------------------------------------------------------------|
||----------------------------------|---------------------------------|
||o---------------------------------|---------------------------------|
||----------------------------------|---------------------------------|
||--------8-8-8-------8-8-8-----8-8-|-------8-8-8-------8-8-8-----8-8-|
||o---------------------------------|---------------------------------|
||--5-5-5-------5-5-5-------7-7-----|-8-8-8-------8-8-8-------8-8-----|


  (Fsus2)                           (Fsus2/E)               (Fsus2)
  PM--------------------------------------------------------------|
|---------------------------------|----------------------------------||
|---------------------------------|---------------------------------o||
|---------------------------------|----------------------------------||
|-------5-5-5-------5-5-5-----5-5-|-------5-5-5-------5-5-5-----5-5--||
|---------------------------------|---------------------------------o||
|-3-3-3-------3-3-3-------3-3-----|-2-2-2-------2-2-2-------3-3------||


  (Gm)                        (Gm/A)
  Gtr II
|-----------------------------6---5---|
|-------8-(8)-----------8-------------|
|-------------------------------------|
|-5-------------5---(5)---------------|
|-------------------------------------|
|-------------------------------------|
|
| Gtr I
| PM-----------------------------------
|-------------------------------------|
|-------------------------------------|
|-------------------------------------|
|-------8--8--8---------8-8-8-----8-8-|
|-------------------------------------|
|-5-5-5---------5-5--5--------7-7-----|


  (Bb5)
|-----------------------------------------|
|-------11-(11)-----------11---------11---|
|-----------------------------------------|
|-8---------------8---(8)--------8--------|
|-----------------------------------------|
|-----------------------------------------|
|
|---------------------------------------|
|-----------------------------------------|
|-----------------------------------------|
|-----------------------------------------|
|--------8---8--8----------8-8-8------8-8-|
|-----------------------------------------|
|-8-8-8-----------8-8--8---------8-8------|


                                                          D.S. al Coda
  (Fsus2)                             (Fsus2/E)       N.C.
|-----------------------------------|----------------------------------|
|-------6-(6)---------6-----8---6---|-------5-5-5-----8-8-8-8-8-8-8-8--|
|-----------------------------------|----------------------------------|
|-5-5-5---------5-5-5---------------|-2-2-2-------2-2-5-5-5-5-5-5-5-5--|
|-----------------------------------|----------------------------------|
|-----------------------------------|----------------------------------|
|
| PM------------------------------------------------|
|-----------------------------------|----------------------------------|
|-----------------------------------|-----------------8-8-8-8-8-8-8-8--|
|-----------------------------------|----------------------------------|
|-------5--5--5-------5-5-5-----5-5-|-------5-5-5-----5-5-5-5-5-5-5-5--|
|-----------------------------------|----------------------------------|
|-3-3-3---------3-3-3-------3-3-----|-2-2-2-------2-2------------------|


   Bridge
    &
    D5  N.C.                       D5  N.CD5  N.C.
                                3x
||------11-11-11----------------||-----11-------------------|
||o----------------------------o||--------------------------|
||-------8--8--8---7-(7)b8-(7)--||------8-----7-7s8-8s10-10-|
||-------0--0--0----------------||------0-------------------|
||o-0-0--------0---------------o||-0-0----0-0-5-5s6-6s=8--8-|
||--0-0--------0----------------||-0-0----0-0---------------|


   Break
    G5         Gm      G5   BbG5   Bbsus2   Bb5Bbsus2     BbBbsus2Bb5
    Gtr III
||-------------------------------|-----------------------------------|
||o------------------------------|-----------------------------------|
||--15-12---15---12------15---12-|-15-14----15-----14-------15----14-|
||-------------------------------|-----------------------------------|
||o------------------------------|-----------------------------------|
||-------------------------------|-----------------------------------|
|
|   Gtr V
||-------------------------------|-----------------------------------|
||o------------------------------|-----------------------------------|
||-------------------------------|-----------------------------------|
||--------5--5-8-(8)-8-5--5-8--5-|-10----10--8-10-(10)-10-8-10-10--8-|
||o--5----5--5-5-(5)-5-5--5-5--5-|--8-----8--8--8--(8)--8-8--8--8--8-|
||---5----5--5-5-(5)-5-5--5-5--5-|--8-----8--8--8--(8)--8-8--8--8--8-|


  Fsus2                          Eb5        Ebsus2  EbEbsusEb5
|------------------------------|-------------------------------||
|------------------------------|------------------------------o||
|-19-15---19---15------19---15-|-15-14---15---14------15---14--||
|------------------------------|-------------------------------||
|------------------------------|------------------------------o||
|------------------------------|-------------------------------||
|
|------------------------------|-------------------------------||
|------------------------------|------------------------------o||
|------------------------------|-------------------------------||
|--5----5--5-5-(5)-5----5-5----|------------3-(3)-3----3-3-----||
|--3----3--3-3-(3)-3----3-3----|--1----1--1-1-(1)-1-1--1-1--1-o||
|--3----3--3-3-(3)-3-3--3-3--3-|--1----1--1-1-(1)-1-1--1-1--1--||


 Chorus
  Gm              Bbsus2
  Gtrs I, II
|---------------|-------------------|
|---------------|-------------------|
|---------------|-------------------|
|-8-8-8-8-------|-10-10-10-10-------|
|-5-5-5-5-------|--8--8--8--8-------|
|-5-5-5-5-------|--8--8--8--8-------|


                          D.S.S. al Dbl. Coda
  F               Eb5            D5EbD5EbF5
                                 PM--|
|---------------|--------------------------------|
|-1-1-1-1-------|--------------------------------|
|-2-2-2-2-------|--------------------------------|
|-3-3-3-3-------|-1-1-1-1--1-(1)-------1h3-3-----|
|-3-3-3-3-------|-1-1-1-1--1-(1)-0-1-0-1h3-3-----|
|-3-3-3-3-------|-1-1-1-1--1-(1)-0-1-0-1h3-3-----|


  &&
  Gm      N.C.
  Gtr II
|---------------------------------------------|
|---------------------------18-18-------18-18-|
|---------14-14-14-14-14-14-------14-14-------|
|-8-8-8-8-------------------------------------|
|-5-5-5-5-------------------------------------|
|-5-5-5-5-------------------------------------|
|
| Gtr I
|---------------------------------------------|
|----------8--8--8--8--8--8--8--8--8--8--8----|
|---------------------------------------------|
|-8-8-8-8--5--5--5--5--5--5--5--5--5--5--5----|
|-5-5-5-5-----------------------------------0-|
|-5-5-5-5-------------------------------------|


  Bbsus2      N.C.
|-------------------------------------------------|
|-------------------------------18-18-------18-18-|
|-------------14-14-14-14-14-14-------14-14-------|
|-10-10-10-10-------------------------------------|
|--8--8--8--8-------------------------------------|
|--8--8--8--8-------------------------------------|
|
|-------------------------------------------------|
|--------------8--8--8--8--8--8--8--8--8--8--8----|
|-------------------------------------------------|
|-10-10-10-10--5--5--5--5--5--5--5--5--5--5--5--0-|
|--8--8--8--8-------------------------------------|
|--8--8--8--8-------------------------------------|


  Fsus2   N.C.                                   Eb5            D5EbD5EbF5
                                                                PM--|
|----------------------------------------------|----------------------------|
|---------------------------18-18-------18--18-|----------------------------|
|---------14-14-14-14-14-14-------14-14--------|----------------------------|
|-5-5-5-5--------------------------------------|-1-1-1-1--1-(1)-------1h3-3-|
|-3-3-3-3--------------------------------------|-1-1-1-1--1-(1)-0-1-0-1h3-3-|
|-3-3-3-3--------------------------------------|-1-1-1-1--1-(1)-0-1-0-1h3-3-|
|
|                                                               PM--|
|----------------------------------------------|----------------------------|
|---------/8--8--8--8--8--8--8--8--8--8--8\----|----------------------------|
|----------------------------------------------|----------------------------|
|-5-5-5-5-/5--5--5--5--5--5--5--5--5--5--5\----|-1-1-1-1--1-(1)-------1h3-3-|
|-3-3-3-3--------------------------------------|-1-1-1-1--1-(1)-0-1-0-1h3-3-|
|-3-3-3-3--------------------------------------|-1-1-1-1--1-(1)-0-1-0-1h3-3-|


  Gm      N.C.
|---------------------------------------------|
|---------18-18-------------18-18-------18-18-|
|---------------14-14-14-14-------14-14-------|
|-8-8-8-8-------------------------------------|
|-5-5-5-5-------------------------------------|
|-5-5-5-5-------------------------------------|
|
|---------------------------------------------|
|----------8--8--8--8--8--8--8--8--8--8--8----|
|---------------------------------------------|
|-8-8-8-8--5--5--5--5--5--5--5--5--5--5--5----|
|-5-5-5-5-----------------------------------0-|
|-5-5-5-5-------------------------------------|


  Bbsus2      N.C.
|-------------------------------------------------|
|-------------------------------18-18-------18-18-|
|-------------14-14-14-14-14-14-------14-14-------|
|-10-10-10-10-------------------------------------|
|--8--8--8--8-------------------------------------|
|--8--8--8--8-------------------------------------|
|
|-------------------------------------------------|
|--------------8--8--8--8--8--8--8--8--8--8--8----|
|-------------------------------------------------|
|-10-10-10-10--5--5--5--5--5--5--5--5--5--5--5--0-|
|--8--8--8--8-------------------------------------|
|--8--8--8--8-------------------------------------|


  Fsus2   N.C.                      Eb5      C7/G   BbF5
|---------------------------------|-----------------------|
|---------------------------------|-----------------------|
|---------------------------------|----------5-5-5--------|
|-5-5-5-5-------------------------|-1-1-1-1--8-8-8--8-3-3-|
|-3-3-3-3-------------------------|-1-1-1-1--7-7-7--8-3-3-|
|-3-3-3-3-------------------------|-1-1-1-1--5-5-5--8-3-3-|
|
|---------------------------------|-----------------------|
|---------/8-8-8-8-8-8-8-8-8-8-8\-|-----------------------|
|---------------------------------|----------5-5-5--------|
|-5-5-5-5-/5-5-5-5-5-5-5-5-5-5-5\-|-1-1-1-1--8-8-8--8-3-3-|
|-3-3-3-3-------------------------|-1-1-1-1--7-7-7--8-3-3-|
|-3-3-3-3-------------------------|-1-1-1-1--5-5-5--8-3-3-|


 Out-Chorus
  Gm      BbG5D5G5    BbG5D5BbG5D5G5  Bbsus2      C5 BbD5Bb5   C5 BbD5C5 BbD5Bb5
  Gtrs I, II
|-----------------------------------|------------------------------------------|
|-----------------------------------|------------------------------------------|
|-----------------------------------|------------------------------------------|
|-8-8-8-8-8-5-0-5-(5)-8-5-0-8-5-0-5-|-10-10-10-10-10-8-0-8-(8)-10-8-0-10-8-0-8-|
|-5-5-5-5-8-5-0-5-(5)-8-5-0-8-5-0-5-|--8--8--8--8-10-8-0-8-(8)-10-8-0-10-8-0-8-|
|-5-5-5-5-8-5-0-5-(5)-8-5-0-8-5-0-5-|--8--8--8--8-10-8-0-8-(8)-10-8-0-10-8-0-8-|


  Fsus2   G5F5D5F5    G5F5D5G5F5D5F5  Eb5             F5
|-----------------------------------|---------------------------------|
|-----------------------------------|---------------------------------|
|-----------------------------------|-3-3-3-3-3-3-3-3-5-5-5-5-5-5-5-5-|
|-5-5-5-5-5-3-0-3-(3)-5-3-0-5-3-0-3-|-1-1-1-1-1-1-1-1-3-3-3-3-3-3-3-3-|
|-3-3-3-3-5-3-0-3-(3)-5-3-0-5-3-0-3-|-1-1-1-1-1-1-1-1-3-3-3-3-3-3-3-3-|
|-3-3-3-3-5-3-0-3-(3)-5-3-0-5-3-0-3-|-1-1-1-1-1-1-1-1-3-3-3-3-3-3-3-3-|


  Gm        G5D5G5    BbG5D5BbG5D5G5  Bbsus2      C5 BbD5Bb5   C5 BbD5C5 BbD5Bb5
|-----------------------------------|------------------------------------------|
|-----------------------------------|------------------------------------------|
|-----------------------------------|------------------------------------------|
|-8-8-8-8-8-5-0-5-(5)-8-5-0-8-5-0-5-|-10-10-10-10-10-8-0-8-(8)-10-8-0-10-8-0-8-|
|-5-5-5-5-8-5-0-5-(5)-8-5-0-8-5-0-5-|--8--8--8--8-10-8-0-8-(8)-10-8-0-10-8-0-8-|
|-5-5-5-5-8-5-0-5-(5)-8-5-0-8-5-0-5-|--8--8--8--8-10-8-0-8-(8)-10-8-0-10-8-0-8-|


  Fsus2   G5F5D5F5    G5F5D5G5F5D5F5  Eb5      C7/G   BbF5  Gm
                                                           2/4
|-----------------------------------|---------------------|-----------*|
|-----------------------------------|---------------------|-----------*|
|-----------------------------------|----------5-5-5------|-----------*|
|-5-5-5-5-5-3-0-3-(3)-5-3-0-5-3-0-3-|-1-1-1-1--8-8-8--8-3-|-8-8-8-8---*|
|-3-3-3-3-5-3-0-3-(3)-5-3-0-5-3-0-3-|-1-1-1-1--7-7-7--8-3-|-5-5-5-5---*|
|-3-3-3-3-5-3-0-3-(3)-5-3-0-5-3-0-3-|-1-1-1-1--5-5-5--8-3-|-5-5-5-5---*|

This tabs correct as far as i can tell so rate fairly thanks heeps Peace.
Suggest correction
Give kudos to tab author, rate the tab!
1 2 3 4 5
comments
print report bad tab
guest
You may want to rate the tab now too:
select rating
Wanna post a correction for this tab? Suggest correction