Oops, an error
Loading. Please wait.

Imn bass

version 3
version 3

Whole song

Interactive

142 views 1 this week
no commentswrite comment
1 2 3 4 5
3 more votes to show rating
add to favorites
×
Save as Personal and add changes to this tab that will be seen only by you. Learn more ›
×
You can save this tab as Personal to edit and correct it or add notes. All changes will be seen only by you. Learn more »
launch autoscroll
font size
0
reset
guitar tuner
edit
Autoscroll
slow
fast
+/-
esc
set tempo
stop
Difficulty
IMN
This is my IMN tab, this is a standard tuning conversion of another tab I found but its
a really good tab in my opinion, it allows people to play IMN without switching tuning
schemes, and for the intro im using a low C instead of a low G because the note sounds 
like a C. I also have tabs for Dull Boy (which got a 5 star rating) and a Scarlet letters tab.

Tuning: B E A D G

Intro
|----------------------------------------------------------------------------------------|
|----------------------------------------------------------------------------------------|
|----------------------------------------------------------------------------------------|
|----------------------------------------------------------------------------------------|
|1-1-1-1------------1-1-1-1------------1-1-1-1-------------------------------------------|

|----------------------------------------------------------------------------------------|
|----------------------------------------------------------------------------------------|
|----------------------------------------------------------------------------------------|
|----------------------------------------------------------------------------------------|
|1-1-1-1------1-1-1-1------1-1-1-1------1-1-1-1------1-1-1-1-1-1-1-1---------------------|


Verse
|----------------------------------------------------------------------------------------|
|--------------------------------------------------------------5-----4-----3-------------|
|---------------------------3------------------------------------------------------------|
|---------------3-------------3-----3--------------------3---1---------------------------|
|/09-09-09-08-----1-4-1-1-4-----3-1---1---/09-09-09-08-----1-----0h5---0h4---1-4-3-1-4-1-|

|----------------------------------------------------------------------------------------|
|---------------------------------------2-2-2-3------------------------------------------|
|---------------------------3------------------------------------------------------------|
|----------------------------3----------2-2-2-3------------------------------------------|
|/09-09-09-08---4-1-4-1-1-4---4---4-4-4-----------4-1-4-1-7-7-8-8-1----------------------|

|----------------------------------------------------------------------------------------|
|----------------------------------------------------------------------------------------|
|-------------------------3--------------------------------------------------------------|
|---------------3---1------3---------------------------3---------------------------------|
|/09-09-09-08-----1---1-4---4-3-1-4-1---/09-09-09-08-----1-4-1-09-09-10b-------3-1-4-1---|

|----------------------------------------------------------------------------------------|
|---------------------------------------4-4-4-5------------------------------------------|
|---------------------------3------------------------------------------------------------|
|---------------------------------------2-2-2-3------------------------------------------|
|/09-09-09-08---4-1-4-1-1-4---4---4-4-4-----------4-1-4---444-6-7------------------------|

Chorus
|------------------888---777-------------------------------------------------------------|
|------------------------------444------------------------/6-5---------------------------|
|--------3---------666---555-----------------3---------8/6-----6-5-----------------------|
|------------------------------222------------------------/4-3---------------------------|
|1-4-3-1---1-4-1---------------------1-4---1---1-4-1-1-6/4-----4-3-----------------------|

|------------------888---777-------------------------------------------------------------|
|------------------------------444------------------------/6-5---------------------------|
|--------3---------666---555-----------------3---------8/6-----6-5-----------------------|
|------------------------------222------------------------/4-3---------------------------|
|1-4-3-1---1-4-1---------------------1-4-3-1---1-4-1-1-6/4-----4-3-----------------------|

Verse
|------------------------------------------------------------------------------------------|
|--------------------------------------------------------------5-----4-----3---------------|
|---------------------------3--------------------------------------------------------------|
|---------------3-------------3--------------------------3---1---1/2----2/3---3------------|
|/09-09-09-08-----1-4-1-1-4-----3-1-3-1---/09-09-09-08-----1--------------------1-4-1-3-1--|

|----------------------------------------------------------------------------------------|
|---------------------------------------4-4-4-5------------------------------------------|
|---------------------------3------------------------------------------------------------|
|-----------------------------3---------2-2-2-3-----------22223333-----------------------|
|/09-09-09-08---4-1-4-1-1-4-------4-4-4-----------4-1-4-1---------1----------------------|

|------------------------------------------------------------------5---------6-11----------|
|----------------------------------------------------------------5--------4----------------|
|---------------------------3----------------------------------3-------5/------------------|
|---------------3-------------3--------------------------3---3-----------------------------|
|/09-09-09-08-----1-4-1-1-4-----3-1-4-1---/09-09-09-08-----1---------1------------3-1-4-1--|

|----------------------------------------------------------------------------------------|
|---------------------------------------4-4-4-5------------------------------------------|
|---------------------------3------------------------------------------------------------|
|-----------------------------3---------2-2-2-3------------------------------------------|
|/09-09-09-08---4-1-4-1-1-4-------4-4-4-----------4-1-4---4-4-6-7------------------------|


Chorus
|------------------888---777-------------------------------------------------------------|
|------------------------------444---------------------4--/6-5---------------------------|
|--------3---------666---555-----------------3-----------6-----6/5-----------------------|
|------------------------------222---------------------2--/4-3---------------------------|
|1-4---1---4-1-----------------------1-4---1---4-1---1---4-----4/3-----------------------|

|------------------888---777-------------------------------------------------------------|
|------------------------------444---------------------4--/6-5---------------------------|
|--------3---------666---555-----------------3-----------6-----6/5-----------------------|
|------------------------------222---------------------2--/4-3---------------------------|
|1-4---1---4-1-----------------------1-4---1---4-1---1---4-----4/3-----------------------|

Bridge
|----------------------------------------------------------------------------------------|
|----------------------------------------------------------------------------------------|

|5-5---3-3---5-5---4-4---4/11—-4-4---5-5---3-3---5-5---4-4---3/11--4-4-------------------| x2
|----------------------------------------------------------------------------------------|
|3-3---1-1---3-3---2-2---2/9---2-2---3-3---1-1---3-3---2-2---3/9---2-2-------------------|

|------14-------14-------14-------12-------13-------13------13-------13------------------|
|---13-------13-------13—------11-------12-------12------12-------12---------------------|
|12-------12-------12-------10-------11-------11------11-------11------------------------|x2
|----------------------------------------------------------------------------------------|
|----------------------------------------------------------------------------------------|

|--0-/05h06p05----3-0------------------------------/-5h-6p-5----3-0------------------------|
|0--------------------2---0-0-0------------------4------------------0----------------------|
|--------------------------------1--1----------4------------------------4-4----------------|
|---------------------------------------5--7--------------------------------4-4------4--4--|
|-------------------------------------3-----------------------------------------2-4--------|

|--0-/-5h-6p-5----3--------------------------------5h-6p-5----3--------------------------|
|0-------------------3-------3-3---------------4-----------------3-0---------------------|
|----------------------5---4-----1-1---1-3---4-------------------------4-4---------------|
|------------------------------------1-------------------------------------4-4-----------|
|------------------------------------------------------------------------------2-4--9--9-|


|--0--5h-6p-5-----3-0------------------------------/-5h-6p-5----3-0------------------------|
|0--------------------2---0-0-0------------------4------------------0----------------------|
|--------------------------------1--1----------4------------------------4-4----------------|
|---------------------------------------5--7--------------------------------4-4------4--4--|
|-------------------------------------3-----------------------------------------2-4--------|

|--0-/-5h-6p-5----3--------------------------------5h-6p-5----3--------------------------|
|0-------------------3-------3-3---------------4-----------------3-0---------------------|
|----------------------5---4-----1-1---1-3---4-------------------------4-4---------------|
|------------------------------------1-------------------------------------4-4-----------|
|------------------------------------------------------------------------------2-4--9--9-|

|----------------------------------------------------------------------------------------|
|----------------------------------------------------------------------------------------|
|5-5---3-3---5-5---4-4---4/11--4-4---5-5---3-3---5-5---4-4---4/11--4-4-------------------|
|----------------------------------------------------------------------------------------|
|3-3---1-1---3-3---2-2---2/9---2-2---3-3---1-1---3-3---2-2---2/9---2-2-------------------|

|----------------------------------------------------------------------------------------|
|----------------------------------------------------------------------------------------|
|5-5---3-3---5-5---4-4---4/11--4-4---5-5---3-3---5-5---4-4---4/11--4-4-------------------|
|----------------------------------------------------------------------------------------|
|3-3---1-1---3-3---2-2---2/9---2-2---3-3---1-1---3-3---2-2---2/9---2-2-------------------|

|------14-------14-------14-------12-------13-------13------13-------13------------------|
|---13-------13-------13—------11-------12-------12------12-------12---------------------|
|12-------12-------12-------10-------11-------11------11-------11------------------------|x2
|----------------------------------------------------------------------------------------|
|----------------------------------------------------------------------------------------|

Chorus
|------------------888---777-------------------------------------------------------------|
|------------------------------444---------------------4--/6-5---------------------------|
|--------3---------666---555-----------------3-----------6-----6/5-----------------------|
|------------------------------222---------------------2--/4-3---------------------------|
|1-4---1---4-1-----------------------1-4---1---4-1---1---4-----4/3-----------------------|

|------------------888---777-------------------------------------------------------------|
|------------------------------444---------------------4--/6-5---------------------------|
|--------3---------666---555-----------------3-----------6-----6/5-----------------------|
|------------------------------222---------------------2--/4-3---------------------------|
|1-4---1---4-1-----------------------1-4---1---4-1---1---4-----4/3-----------------------|


Outro

|----------------------------------------------------------------------------------------|
|----------------------------------------------------------------------------------------|
|5-5---3-3---5-5---4-4---4/11--4-4---5-5---3-3---5-5---4-4---4/11--4-4-------------------|
|----------------------------------------------------------------------------------------|
|3-3---1-1---3-3---2-2---2/9---2-2---3-3---1-1---3-3---2-2---2/9---2-2-------------------|

|----------------------------------------------------------------------------------------|
|----------------------------------------------------------------------------------------|
|5-5---3-3---5-5---4-4---4/11--4-4---5-5---3-3---5-5---4-4---4/11--4-4-------------------|
|----------------------------------------------------------------------------------------|
|3-3---1-1---3-3---2-2---2/9---2-2---3-3---1-1---3-3---2-2---2/9---2-2-------------------|

|----------------------------------------------------------------------------------------|
|----------------------------------------------------------------------------------------|
|----------------------------------------------------------------------------------------|
|----------------------------------------------------------------------------------------|
|1-1-1-1------------1-1-1-1------------1-1-1-1-------------------------------------------|


|----------------------------------------------------------------------------------------|
|----------------------------------------------------------------------------------------|
|----------------------------------------------------------------------------------------|
|----------------------------------------------------------------------------------------|
|1-1-1-1------1-1-1-1------1-1-1-1------1-1-1-1------1-1-1-1-1-1-1-1---------------------|

            
            
Suggest correction
Creating personal tab
Creating personal tab
You can edit any tab online and save it as your Personal.

You can edit, replace or remove any tab part or add personal notes – all changes will be seen only by you.

Personal tabs can be accessed anytime from any device, even offline.
Learn more »
Give kudos to tab author, rate the tab!
1 2 3 4 5
comments
print report bad tab
guest
Wanna post a correction for this tab? Suggest correction