Oops, an error
Loading. Please wait.

Know Forever bass

version 2
version 2

Whole song

Interactive

830 views 1 this week
no commentswrite comment
1 2 3 4 5
3 more votes to show rating
add to favorites
×
Save as Personal and add changes to this tab that will be seen only by you. Learn more ›
×
You can save this tab as Personal to edit and correct it or add notes. All changes will be seen only by you. Learn more »
launch autoscroll
font size
0
reset
guitar tuner
edit
Autoscroll
slow
fast
+/-
esc
set tempo
stop
-----------------------------------------------------------------------------------------------
  
  Artist - MuDvAyNe
  Album  - L.D.50 (2000)
  Song   - [K]now F[orever]
  Tabbed - Jakob Jugovic
  Mail   - jakobjugovic@gmail.com
  Year   - 2009

-----------------------------------------------------------------------------------------------

  TUNING:

  G
  D
  A
  E
  B

  p - pull
  h - hammer on
  / - slide upwards
  \ - slide downwards
  x - ghost note
  X - left hand ghost note
  S - slapping 
  F - 'fingerslapping'
  T - tapping - {#} base-note
  P - popping
  ~ - vibrato
  o - 1/4 (timescale)

-----------------------------------------------------------------------------------------------


  INTRO:

    o . . . o . . . 
G |-----------------|
D |-----------------|
A |-----------------|
E |-----------------|
B |---------3-3-----|
            S S


    o . . . o . . . o . . . o . . . 
G |---------------------------------|
D |---------------------------------|
A |---------------------------------|
E |---------------------------------|
B |---------3-3---------3-3---------|
            S S         S S


    o . . . o . . . o . . . o . . . 
G |---------------------------------|
D |---------------------------------|
A |---------------------------------|
E |---------------------------------|
B |-3-3-----3-3---------3-3---------|
    S S     S S         S S


    o . . . o . . . o . . . o . . . 
G |---------------------------------|
D |---------------------------------|
A |---------------------------------|
E |---------------------------------|
B |-3-3-----3-3-----3-3-3-3---------|
    S S     S S     S S S S


    o . . . o . . . o . . . o . . . 
G |---------------------------------|
D |---------------------------------|
A |---------------------------------|
E |---------------------------------|
B |-3-3-------0-3-3-3-3---3---------|
    F F       F F F F F   F


    o . . . o . . . o . . . o . . . 
G |---------------------------------|
D |---------------------------0-0-0-|
A |-------------------------2-------|
E |---------------------------------|
B |-3-3-------0-3-3-3-3---3---------|
    F F       F F F F F   F F F F F


    o . . . o . . . o . . . o . . . 
G |---------------------------------|
D |---------------------------------|
A |---------------------------------|
E |---------------------------------|
B |-3-3-------0-3-3-3-3---3-/-12~---|
    F F       F F F F F   S


    o . . . o . . . o . . . o . . . 
G |-----------------------109\------|
D |-----------------------109\------|
A |---------------------------------|
E |---------------------------------|
B |-3-3-------0-3-3-3-3/------------|
    S S       S S S S S


  PRE:

    o . . . o . . . o . . . o . . . 
G |---------------------------4-----|
D |---------------------------3-----|
A |---------5-5-----------------2-2-|
E |-----4-4-----4-4-----4-4---------|
B |-0-0-------------0-0-------------|
    F F F F F F F F F F F F   P S S


    o . . . o . . . o . . . o . . . 
G |---------------------------------|
D |---------------------------------|
A |---------5-5---------------6-----|
E |-----4-4-----4-4-----4-4-----7-5\|
B |-0-0-------------0-0-------------|
    F F F F F F F F F F F F   P S S


    o . . . o . . . o . . . o . . . 
G |---------------------------4-----|
D |---------------------------3-----|
A |---------5-5-----------------2-2-|
E |-----4-4-----4-4-----4-4---------|
B |-0-0-------------0-0-------------|
    F F F F F F F F F F F F   P S S


    o . . . o . . . o . . . o . . . 
G |-----------------9/A\9/A\9/A\9\--|  A=10
D |---------------------------------|
A |---------5-5-----7/8\7/8\7/8\7\--|
E |-----4-4-----4/------------------|
B |-0-0-----------------------------|
    F F F F F F S


  CHORUS:

    o . . . o . . . o . . . o . . . 
G |---------------------------------|
D |---------------------------------|
A |---------------------------------|
E |-5-------------------------------|
B |---5-0-5-6-0-6-5-0-0---0-0-------|
    F F F F F F F F F F   F F


    o . . . o . . . o . . . o . . . 
G |---------------------------------|
D |-------------------------6-6-6-6-|
A |---------------------------------|
E |-5-----------------------4-4-4-4-|
B |---5-0-5-6-0-6-5-0-0---0---------|
    F F F F F F F F F F   S F F F F


    o . . . o . . . o . . . o . . . 
G |---------------------------------|
D |---------------------------------|
A |---------------------------------|  x2
E |---------------------------------|
B |-0-0---0-0/12----0-0---0-12\-----|
    F F   F F       F F   F F


    o . . . o . . . o . . . o . . . 
G |---------------------------------|
D |---------------------------------|
A |---------------------------------|
E |---------------------------------|
B |-6-0---0---0-660---------0-------|
    F F   F   F FFF         S


  VERSE:

    o . . . o . . . o . . . o . . . o . . . o . . . o . . . o . . . 
G |-----------------------------------------------------------------|
D |-----------------------------------------------------------------|
A |-------------------0-----2---------------------------------------|
E |---------------------------4-----4-4-4-4-4-4-4-4-4---------------|
B |-0-0-0-0-0-0-1-1-1---------------------------------3-3-3-3h5-5-5-|
    F F F F F F F F F F     F F     F F F F F F F F F F F F F F F F


    o . . . o . . . o . . . o . . . o . . . o . . . o . . . o . . . 
G |-----------------------------------------------------------------|
D |---------------------------------0-0-0-0-0-0-0-0-0---------------|
A |-------------------0-----2---------------------------------------|
E |---------------------------4-------------------------------------|
B |-0-0-0-0-0-0-1-1-1---------------------------------3-3-3-3h5-5-5-|
    F F F F F F F F F F     F F     F F F F F F F F F F F F F F F F


    o . . . o . . . o . . . o . . . o . . . o . . . o . . . o . . . 
G |-----------------------------------------------------------------|
D |-----------------------------------------6-6---------6-6---------|
A |-0-2-2-2-2-2-3-3-3-0-0-0-2---------------5-5---------5-5---------|
E |---------------------------4-4-4-4-4-4-4-----4-4-4-4-----4-4-4-4-|
B |-----------------------------------------------------------------|
    F F F F F F F F F F F F F F F F F F F F     F F F F     F F F F


    o . . . o . . . o . . . o . . . o . . . o . . . o . . . o . . . 
G |-----------------------------------------------------------------|
D |---------------------------------6-6---------6-6---------6-6-----|
A |-0-2-2-2-2-2-3-3-3-0-0-0-2-------5-5---------5-5---------5-5-----|
E |---------------------------4-4-4-----4-4-4-4-----4-4-4-4-----4-4-|
B |-----------------------------------------------------------------|
    F F F F F F F F F F F F F F F F     F F F F     F F F F     F F


    o . . . o . . . o . . . o . . . o . . . o . . . o . . . o . . . 
G |-----------------------------------------------------------------|
D |-----------------------------------------------------------------|
A |-------------------0-----2---------------------------------------|
E |---------------------------4-----4-4-4-4-4-4-4-4-4---------------|
B |-0-0-0-0-0-0-1-1-1---------------------------------3-3-3-3h5-5-5-|
    F F F F F F F F F F     F F     F F F F F F F F F F F F F F F F


    o . . . o . . . o . . . o . . . o . . . o . . . o . . . o . . . 
G |-----------------------------------------------------------------|
D |-----------------------------------------6p0---------6p0-----6p0-|
A |-0-2-2-2-2-2-3-3-3-0-0-0-2---------------------------------------|
E |---------------------------4-4-4-4-4-4-x---------4-x-------------|
B |-----------------------------------------------------------------|
    F F F F F F F F F F F F F F F F F F F S P       S S P       P


  CHORUS:

    o . . . o . . . o . . . o . . . 
G |---------------------------------|
D |---------------------------------|
A |---------------------------------|
E |-5-------------------------------|
B |---5-0-5-6-0-6-5-0-0---0-0-------|
    F F F F F F F F F F   F F


    o . . . o . . . o . . . o . . . 
G |---------------------------------|
D |-------------------------6-6-6-6-|
A |---------------------------------|
E |-5-----------------------4-4-4-4-|
B |---5-0-5-6-0-6-5-0-0---0---------|
    F F F F F F F F F F   S F F F F


    o . . . o . . . o . . . o . . . 
G |---------------------------------|
D |---------------------------------|
A |---------------------------------|  x2
E |---------------------------------|
B |-0-0---0-0/12----0-0---0-12\-----|
    F F   F F       F F   F F


    o . . . o . . . o . . . o . . .     _
G |---------------------------------|    |
D |---------------------------------|    |
A |---------------------------------|    |
E |-5-------------------------------|    |
B |---5-0-5-6-0-6-5-0-0---0-0-------|    |
    F F F F F F F F F F   F F            |
                                         |  x2
                                         |
    o . . . o . . . o . . . o . . . |    |
G |---------------------------------|    |
D |-------------------------6-6-6-6-|    |
A |---------------------------------|    |
E |-5-----------------------4-4-4-4-|    |
B |---5-0-5-6-0-6-5-0-0---0---------|   _|
    F F F F F F F F F F   S F F F F


  VERSE:

    o . . . o . . . o . . . o . . . o . . . o . . . o . . . o . . . 
G |-----------------------------------------------------------------|
D |-----------------------------------------6-6---------6-6---------|
A |-0-2-2-2-2-2-3-3-3-0-0-0-2---------------5-5---------5-5---------|
E |---------------------------4-4-4-4-4-4-4-----4-4-4-4-----4-4-4-4-|
B |-----------------------------------------------------------------|
    F F F F F F F F F F F F F F F F F F F F     F F F F     F F F F


    o . . . o . . . o . . . o . . . o . . . o . . . o . . . o . . . 
G |-----------------------------------------------------------------|
D |---------------------------------6-6---------6-6---------6-6-----|
A |-0-2-2-2-2-2-3-3-3-0-0-0-2-------5-5---------5-5---------5-5-----|
E |---------------------------4-4-4-----4-4-4-4-----4-4-4-4-----4-4-|
B |-----------------------------------------------------------------|
    F F F F F F F F F F F F F F F F     F F F F     F F F F     F F


    o . . . o . . . o . . . o . . . o . . . o . . . o . . . o . . . 
G |-----------------------------------------------------------------|
D |---------------------------------0-0-0-0-0-0-0-0-0---------------|
A |-----------------------------------------------------------------|
E |-----------------------------------------------------------------|
B |-5-3-0-----0-3-----------3---5---------------------0-3-5-5-0-3-5-|
    F F F     F F           F   F   F F F F F F F F F F F F F F F F


    o . . . o . . . o . . . o . . . o . . . o . . . o . . . o . . . 
G |-----------------------------------------------------------------|
D |-----------------------------------------6p0---------6p0-----6p0-|
A |-0-2-2-2-2-2-3-3-3-0-0-0-2---------------------------------------|
E |---------------------------4-4-4-4-4-4-x---------4-x-------------|
B |-----------------------------------------------------------------|
    F F F F F F F F F F F F F F F F F F F S P       S S P       P


  CHORUS:

    o . . . o . . . o . . . o . . . 
G |---------------------------------|
D |---------------------------------|
A |---------------------------------|
E |-5-------------------------------|
B |---5-0-5-6-0-6-5-0-0---0-0-------|
    F F F F F F F F F F   F F


    o . . . o . . . o . . . o . . . 
G |---------------------------------|
D |-------------------------6-6-6-6-|
A |---------------------------------|
E |-5-----------------------4-4-4-4-|
B |---5-0-5-6-0-6-5-0-0---0---------|
    F F F F F F F F F F   S F F F F


  BRIDGE [strum all]:

    o . . . o . . . o . . . o . . . o . . . o . . . o . . . o . . . 
G |-----------------------------------------------------------------|
D |-6-6-6-6-6-6-7-7-7-7-7-7-7-7-7-7-9-9-9-9-9-9-7-7-7-7-7-7-7-7-7-7-|
A |-----------------------------------------------------------------|  x2
E |-4-4-4-4-4-4-5-5-5-5-5-5-5-5-5-5-7-7-7-7-7-7-5-5-5-5-5-5-5-5-5-5-|
B |-----------------------------------------------------------------|


    o . . . o . . . o . . . o . . . o . . . o . . . o . . . o . . . 
G |-----------------------------------------------------------------|
D |-6-6-6-6-9-6-6-6-6-7-7-7-7-7-7-7-9-9-9-9-109-9-9-9-7-7-7-7-7-7-7-|
A |-----------------------------------------------------------------|  x3
E |-4-4-4-4-7-4-4-4-4-5-5-5-5-5-5-5-7-7-7-7-8-7-7-7-7-5-5-5-5-5-5-5-|
B |-----------------------------------------------------------------|


  CHORUS:

    o . . . o . . . o . . . o . . .     _
G |---------------------------------|    |
D |---------------------------------|    |
A |---------------------------------|    |
E |-5-------------------------------|    |
B |---5-0-5-6-0-6-5-0-0---0-0-------|    |
    F F F F F F F F F F   F F            |
                                         |  x3
                                         |
    o . . . o . . . o . . . o . . .      |
G |---------------------------------|    |
D |-------------------------6/7-7/9-|    |
A |---------------------------------|    |
E |-5-----------------------4/5-5/7-|    |
B |---5-0-5-6-0-6-5-0-0---0---------|   _|
    F F F F F F F F F F   S P   P


    o . . . o . . . o . . . o . . . 
G |---------------------------------|
D |-------------------------6-6-6-6-|
A |---------------------------------|
E |-5-----------------------4-4-4-4-|
B |---5-0-5-6-0-6-5-0-0---0---------|
    F F F F F F F F F F   S F F F F


    o . . . o . . . o . . . o . . . 
G |---------------------------------|
D |---------------------------------|
A |---------------------------------|
E |---------------------------------|
B |-6-0---0---0-660---------0-------|
    F F   F   F FFF         S


  BRIDGE 2:

    o . . . o . . . o . . . o . . . o . . . o . 
G |---------------------------------------------|
D |---------------------------------------------|
A |---------------------------------------------|  x2
E |---------------------------------------------|
B |-0-0-0-0---------0-0-0-----0-0-------0-------|
    S S S S         S S S     S S       S


    o . . . o . . . o . . . o . . . o . . . o . 
G |---------------------------------------------|
D |---------------------------------------------|
A |---------------------------------------------|
E |---------------------------------------------|
B |-0-0-0-0---------0-0-0-----0-0---------------|
    S S S S         S S S     S S


    o . . . o . . . o . . . o . . . 
G |---------------------------------|
D |---------------------------------|
A |---------------------------------|  x2
E |---------------------------------|
B |-6-0-0-0---0-0---0-0---0-0---0-0-|
    S S S S   S S   S S   S S   S S


    o . . . o . . . o . . . o . . . o . . . o . . . o . . . o . . . 
G |----------------------------------------------------------------|
D |----------------------------------------------------------------|
A |----------------------------------------------------------------|  x2
E |----------------------------------------------------------------|
B |-0-0-0-0---0-0-/-12~~~~--10~~~~--0-0-0-0---0-0-/-9~~~~---10~~~~-|
    S S S S   S S   F       F       S S S S   S S   F       F


  [strum all]

    o . . . o . . . o . . . o . . . o . . . o . . . o . . . o . . . 
G |-----------------------------------------------------------------|
D |-6-6-6-6-9-6-6-6-6-7-7-7-7-7-7-7-9-9-9-9-109-9-9-9-7-7-7-7-7-7-7-|
A |-----------------------------------------------------------------|  x2
E |-4-4-4-4-7-4-4-4-4-5-5-5-5-5-5-5-7-7-7-7-8-7-7-7-7-5-5-5-5-5-5-5-|
B |-----------------------------------------------------------------|


    o . . . o . . . o . . . o . . . o . . . o . . . o . . . o . . . 
G |-----------------4-4-4-4-5-5-5-5-----------------4-4-4-4-2-2-2-2-|      <
D |-----------------4-4-4-4-5-5-5-5-----------------4-4-4-4-2-2-2-2-|      <  strum
A |-----------------2-2-2-2-3-3-3-3-----------------2-2-2-2-0-0-0-0-|  x2  <
E |-----------------------------------------------------------------|
B |-6-0-0-0---0-0-------------------6-0-0-0---0-0-------------------|
    S S S S   S S                   S S S S   S S

    o . . . o . . . o . . .
G |-------------------------|
D |-------6-----------------|
A |-------5-----------------|
E |-4---------4-4-----------|
B |-------------------------|


  MID PART:

    o . . . o . . . o . . . o . . . o . . . o . . . o . . . o . . . 
G |-----------------------------------------------------------------|
D |-6-----6-///-12----12--------------------------------------------|      <
A |-6-----6-///-12----12--------------------------------------------|  x4  <  strum
E |-4-----4-///-10----10--------------------------------------------|      <
B |-------------------------0---0-3-2-0-2---0-3-2-0-2---0-3-2-0-2-0-|
                            F   F F F F F   F F F F F   F F F F F F


    o . . . o . . . o . . . o . . .
G |---------------------------------|
D |---------------------------------|
A |-11--------------------------11\-|
E |---------------------------------|
B |-9---------------------------9-\-|


    o . . . o . . . o . . . o . . .
G |---------------------------------|
D |-----------------------------7---|
A |-------5/11\---------------6-----|  x3
E |-4-----------4-4---4-4-4-5-------|
B |---------------------------------|
                F F   F F F


    o . . . o . . . o . . . o . . .
G |---------------------------------|
D |-------------------------9\7-9\7-|
A |-------5/11\---------------------|
E |-4-----------4-4---4-4-4-7\5-7\5-|
B |---------------------------------|
                F F   F F F


    o . . . o . . . o . . . o . . .
G |---------------------------------|
D |-----------------------------7---|
A |-------5/11\---------------6-----|  x4
E |-4-----------4-4---4-4-4-5-------|
B |---------------------------------|
                F F   F F F


    o . . . o . . . o . . .
G |-------1-----1-----------|
D |-------0-----0-----------|
A |-------------------------|
E |-4-----------------------|
B |-------------------------|
    S     P     P


  VERSE:

    o . . . o . . . o . . . o . . . o . . . o . . . o . . . o . . . 
G |-----------------------------------------------------------------|
D |-----------------------------------------------------------------|
A |-------------------0-----2---------------------------------------|  x2
E |---------------------------4-----4-4-4-4-4-4-4-4-4---------------|
B |-0-0-0-0-0-0-1-1-1---------------------------------3-3-3-3h5-5-5-|
    F F F F F F F F F F     F F     F F F F F F F F F F F F F F F F


    o . . . o . . . o . . . o . . . o . . . o . . . o . . . o . . . 
G |-----------------------------------------------------------------|
D |-----------------------------------------6-6---------6-6---------|
A |-0-2-2-2-2-2-3-3-3-0-0-0-2---------------5-5---------5-5---------|
E |---------------------------4-4-4-4-4-4-4-----4-4-4-4-----4-4-4-4-|
B |-----------------------------------------------------------------|
    F F F F F F F F F F F F F F F F F F F F     F F F F     F F F F


    o . . . o . . . o . . . o . . . o . . . o . . . o . . . o . . . 
G |-----------------------------------------------------------------|
D |---------------------------------6-6---------6-6---------6-6-----|
A |-0-2-2-2-2-2-3-3-3-0-0-0-2-------5-5---------5-5---------5-5-----|
E |---------------------------4-4-4-----4-4-4-4-----4-4-4-4-----4-4-|
B |-----------------------------------------------------------------|
    F F F F F F F F F F F F F F F F     F F F F     F F F F     F F


    o . . . o . . . o . . . o . . . o . . . o . . . o . . . o . . . 
G |-----------------------------------------------------------------|
D |-----------------------------------------------------------------|
A |-------------------0-----2---------------------------------------|
E |---------------------------4-------------------------------------|
B |-0-0-0-0-0-0-1-1-1---------------0-0-0-0-------------------------|
    F F F F F F F F F F     F F     S S S S


    o . . . o . . . o . . . o . . . o . . . o . . . o . . . o . . . 
G |-----------------------------------------------------------------|
D |-----------------------------------------------------------------|
A |-0-2-2-2-2-2-3-3-3-0-0-0-2---------------------------------------|
E |---------------------------4-4-4---------------------------------|
B |---------------------------------0-0-0-0-----------------12~~~\--|
    F F F F F F F F F F F F F F F F S S S S                 S


    o . . . o . . . o . . . o . . . o . . . o . . . o . . . o . . . 
G |-----------------------------------------------------------------|
D |-----------------------------------------------------------------|
A |-0-2-2-2-2-2-3-3-3-0-0-0-2---------------------------------------|
E |---------------------------4-4-4---------------------------------|
B |---------------------------------0-0-0-0-----0-----0-----0-------|
    F F F F F F F F F F F F F F F F S S S S     S     S     S


    o . . . o . . . o . . . o . . .
G |---------------------------------|
D |---------------------------------|
A |-0-2-2-2-2-2-3-3-3-0-0-0-2-------|
E |---------------------------4-4-4-|
B |---------------------------------|
    F F F F F F F F F F F F F F F F


    o . . . o . . . o . . . o . . . o . . . o . 
G |---------------------------------------------|
D |---------------------------------------------|
A |---------------------------------------------|  x2
E |---------------------------------------------|
B |-0-0-0-0---------0-0-0-----0-0-------0-------|
    S S S S         S S S     S S       S


CHORUS:


    o . . . o . . . o . . . o . . .     _
G |---------------------------------|    |
D |---------------------------------|    |
A |---------------------------------|    |
E |-5-------------------------------|    |
B |---5-0-5-6-0-6-5-0-0---0-0-------|    |
    F F F F F F F F F F   F F            |
                                         |  x2
                                         |
    o . . . o . . . o . . . o . . . |    |
G |---------------------------------|    |
D |-----------------------6-6-6-6-6-|    |
A |---------------------------------|    |
E |-5---------------------4-4-4-4-4-|    |
B |---5-0-5-6-0-6-5-0-0-------------|   _|
    F F F F F F F F F F   F F F F F


    o . . . o . . . o . . . o . . . 
G |---------------------------------|
D |---------------------------------|
A |---------------------------------|  X2
E |---------------------------------|
B |-0-0---0-0/12----0-0---0-12\-----|
    S S   S S       S S   S S


    o . . . o . . . o . . . o . . . 
G |---------------------------------|
D |---------------------------------|
A |---------------------------------|
E |---------------------------------|
B |-6-0---0---0-660-----------------|
    F F   F   F FFF


  OUTRO:

    o . . . o . . . o . . . o . . .
G |---------------------------------|
D |-----------------------------6---|
A |-----------------------------5---|
E |-----------------------------4---|
B |-3-2-1-3-2-1-3-0-3-2-1-3-2-1-----|
    F F F F F F F F F F F F F F P


    o . . . o . . . o . . . o . . . o
G |-----------------------------------|
D |-----------------------------------|
A |-----------------------------------|
E |-----------------------------------|
B |-3-2-1-3-2-1-3-0-320-0-320-0-320-0-|
    F F F F F F F F FFF F FFF F FFF F



            
            
Suggest correction
Creating personal tab
Creating personal tab
You can edit any tab online and save it as your Personal.

You can edit, replace or remove any tab part or add personal notes – all changes will be seen only by you.

Personal tabs can be accessed anytime from any device, even offline.
Learn more »
Give kudos to tab author, rate the tab!
1 2 3 4 5
comments
print report bad tab
guest
You may want to rate the tab now too:
select rating
Wanna post a correction for this tab? Suggest correction