Oops, an error
Loading. Please wait.

On The Move bass

1,417 views 1 this week
2 commentsread comments
1 2 3 4 5
3 more votes to show rating
add to favorites
×
Save as Personal and add changes to this tab that will be seen only by you. Learn more ›
×
You can save this tab as Personal to edit and correct it or add notes. All changes will be seen only by you. Learn more »
launch autoscroll
font size
0
reset
guitar tuner
edit
Autoscroll
slow
fast
+/-
esc
set tempo
stop
Band- Mudvayne
Song- On The Move

Tuning : CGCF

This song is very fast and hard to tab the speed of some of the riffs
is hard to tell but ive got most of it right, the bridge section could
do with a little extra but its hard to tell what he plays.

This is the complete song, it can be cut into sections but its to hard
to explain it as each riff turns up in different places.

b - bend
x - dead mute
p - pull off
h - hammer on
/ - slide up
\ - slide down

Intro
F|---4-----0----3-3--3--0--0----4-----0----3-3--3--0--0-|
C|----x-2-2-x-2--3-xx-xx-xx------x-2-2-x-2--3-xx-xx-xx--|
G|-xx-------------------------xx------------------------|
C|------------------------------------------------------|

|---4-----0----3-3--3--0--0----4--------0--0------|
|----x-2-2-x-2--3-xx-xx-xx------x-2-2-xx-xx-------|
|-xx-------------------------xx-------------------|
|-------------------------------------------------|

|----3--3--3--3h0----3--3--3--3h0--3h0--0--3h0--0-|
|-2-3-33-22-00----2-3-33-22-00---22---00-22---00--|
|-------------------------------------------------|
|-------------------------------------------------|
                Verse "I pack up my **** im on the road like killwack                
|-----3--3p0---------------------x---x-------------------x--x-|
|--22--00-------3--3--x--33--2--4-xx----3--3--x--33--2--4-xx--|
|-------------xx-33-xx-22--xx-xx------xx-33-xx-22--xx-xx------|
|-------------------------------------------------------------|

|-------------------x--x--------------------x--x---4-0-|
|--3--3--x--33--2--4-xx----3--3--x--33--2--4-xx--xx-x--|
|xx-33-xx-22--xx-xx------xx-33-xx-22--xx-xx------------|
|------------------------------------------------------|
"Wow! I Love It!"
|---4-----0----3-3--3--0--0----4-----0----3-3--3--0--0-|
|----x-2-2-x-2--3-xx-xx-xx------x-2-2-x-2--3-xx-xx-xx--|
|-xx-------------------------xx------------------------|
|------------------------------------------------------|

|---4-----0----3-3--3--0--0----4-----0----3-3--3--0--03p0--|
|----x-2-2-x-2--3-xx-xx-xx------x-2-2-x-2--3-xx-xx-xx------|
|-xx-------------------------xx----------------------------|
|----------------------------------------------------------|

|-------------------x--x--------------------x--x----|
|--3--3--x--33--2--4-xx----3--3--x--33--2--4-xx-----|
|xx-33-xx-22--xx-xx------xx-33-xx-22--xx-xx---------|
|---------------------------------------------------|

|-------------------x--x--------------------x--x----|
|--3--3--x--33--2--4-xx----3--3--x--33--2--4-xx-----|
|xx-33-xx-22--xx-xx------xx-33-xx-22--xx-xx---------|
|---------------------------------------------------|
"Im Livin the life without the life"
|--------------03p0-----------------03p0----------------03p0-|
|---3--3--x--33---------3--3--x--33---------3--3--x--33------|
|-xx-33-xx-22---------xx-33-xx-22---------xx-33-xx-22--------|
|------------------------------------------------------------|

|---------------03p0----------------03p0-|
|---3--3--x--33---------3--3--x--33------|
|-xx-33-xx-22---------xx-33-xx-22--------|
|----------------------------------------|
Chorus "I know my place is on this road"
|--x--x--x--x--x--x--x--x--x---------x---------x-|
|xx-xx-xx-xx-xx-xx-xx-xx-xx----------------------|
|------------------------------------------------|
|-------------------------------88p0------88p0---|

|--x--x--x--x--x--x--x--x--x---------x---------x-|
|xx-xx-xx-xx-xx-xx-xx-xx-xx----------------------|
|------------------------------------------------|
|-------------------------------88p0------88p0---|
"I will follow my life"
|x-x-x-x-x-x-x-x-x--x--x--x--x---x--4--x--x--x-x---|
|xxxxxxxxxxxxx-x-x---xx----xx-----------xx---------|
|---------------x-xx----xx------4-22-xx----xx-4-22-|
|--------------------------------------------------|

|--x--4--x--x--x-x-----x--x--x--x--x--x-|
|---------xx------------xx----xx----xx--|
|-4-22-xx----xx-4-22-xx----xx----xx-----|
|---------------------------------------|
Verse 2 "Oh my world is the best to be in"
|-------------------x--x--------------------x--x-|
|--3--3--x--33--2--4-xx----3--3--x--33--2--4-xx--|
|xx-33-xx-22--xx-xx------xx-33-xx-22--xx-xx------|
|------------------------------------------------|

|-------------------x--x--------------------x--x---4-0-|
|--3--3--x--33--2--4-xx----3--3--x--33--2--4-xx--xx-x--|
|xx-33-xx-22--xx-xx------xx-33-xx-22--xx-xx------------|
|------------------------------------------------------|

|-------------------x--x--------------------x--x-|
|--3--3--x--33--2--4-xx----3--3--x--33--2--4-xx--|
|xx-33-xx-22--xx-xx------xx-33-xx-22--xx-xx------|
|------------------------------------------------|

|-------------------x--x--------------------x--x---4-40304-|
|--3--3--x--33--2--4-xx----3--3--x--33--2--4-xx--xx-x------|
|xx-33-xx-22--xx-xx------xx-33-xx-22--xx-xx----------------|
|----------------------------------------------------------|

|-------------------x--x--|
|--3--3--x--33--2--4-xx---|
|xx-33-xx-22--xx-xx-------|
|-------------------------|
"Im livin the life without the life"
|---7----------------7-------------|
|--7--5-3-2-0-2-3---7--5-3-2-0-2-3-|
|-x--x-x-x-x-x-x---x--x-x-x-x-x-x--| Do 2 Times
|----------------------------------|
Chorus "I know my place is on this road"
|--x--x--x--x--x--x--x--x--x---------x---------x-|
|xx-xx-xx-xx-xx-xx-xx-xx-xx----------------------|
|------------------------------------------------|
|-------------------------------88p0------88p0---|

|--x--x--x--x--x--x--x--x--x---------x---------x-|
|xx-xx-xx-xx-xx-xx-xx-xx-xx----------------------|
|------------------------------------------------|
|-------------------------------88p0------88p0---|
"I Will follow my life"
|x-x-x-x-x-x-x-x-x--x--x--x--x---x--4--x--x--x-x---|
|xxxxxxxxxxxxx-x-x---xx----xx-----------xx---------|
|---------------x-xx----xx------4-22-xx----xx-4-22-|
|--------------------------------------------------|

|--x--4--x--x--x-x-----x--x--x--x--x--x-|
|---------xx------------xx----xx----xx--|
|-4-22-xx----xx-4-22-xx----xx----xx-----|
|---------------------------------------|

|--------x---------x--------x---------x|
|--------------------------------------|
|--------------------------------------|
|---88p0------88p0-----88p0------88p0--|
"The surcombsized your family"
|----------------------------------------------------|
|----17-14--17--15-14---------19----16-17---15-15----| Do 2 Times
|-15--------------------17-17------------17------15--|
|----------------------------------------------------|
"Day by day Your World Becomes Our Home"
|-----x-----------------x-----------------x------------|
|----x----5b/3b/1b-----x----5b/3b/1b-----x----5b/3b/1b-| Do 4 Times
|-33----------------33----------------33---------------|     
|------------------------------------------------------|
"Im living The Life You Ride"
|----------------|
|----------------|
|-33h0--9\5\3\1/-|
|----------------|
Chorus "I know my place is on this road"
|--x--x--x--x--x--x--x--x--x---------x---------x-|
|xx-xx-xx-xx-xx-xx-xx-xx-xx----------------------|
|------------------------------------------------|
|-------------------------------88p0------88p0---|

|--x--x--x--x--x--x--x--x--x---------x---------x-|
|xx-xx-xx-xx-xx-xx-xx-xx-xx----------------------|
|------------------------------------------------|
|-------------------------------88p0------88p0---|

|x-x-x-x-x-x-x-x-x--x--x--x--x---x--4--x--x--x-x---|
|xxxxxxxxxxxxx-x-x---xx----xx-----------xx---------|
|---------------x-xx----xx------4-22-xx----xx-4-22-|
|--------------------------------------------------|

|--x--4--x--x--x-x-----x--x--x--x--x--x-|
|---------xx------------xx----xx----xx--|
|-4-22-xx----xx-4-22-xx----xx----xx-----|
|---------------------------------------|

|--------x---------x--------x---------x|
|--------------------------------------|
|--------------------------------------|
|---88p0------88p0-----88p0------88p0--|
Outro
|----------------|
|----------------|
|-33h0--9\5\3\1/-|
|----------------|

            
            
Suggest correction
Creating personal tab
Creating personal tab
You can edit any tab online and save it as your Personal.

You can edit, replace or remove any tab part or add personal notes – all changes will be seen only by you.

Personal tabs can be accessed anytime from any device, even offline.
Learn more »
Give kudos to tab author, rate the tab!
1 2 3 4 5
comments
print report bad tab
2 comments total.
0 reply
shaka1355 10 Nov 08, 2007 12:29 PM

ctm wn :| pal pico xD

0 reply
killertowel 30 Jul 28, 2010 04:29 AM

thats a lot of mutes

guest
You may want to rate the tab now too:
select rating
Wanna post a correction for this tab? Suggest correction