Oops, an error
Loading. Please wait.

Pharmaecopia bass

version 2
version 2

Whole song

Interactive

550 views 1 this week
no commentswrite comment
1 2 3 4 5
2 more votes to show rating
add to favorites
×
Save as Personal and add changes to this tab that will be seen only by you. Learn more ›
×
You can save this tab as Personal to edit and correct it or add notes. All changes will be seen only by you. Learn more »
launch autoscroll
font size
0
reset
guitar tuner
edit
Autoscroll
slow
fast
+/-
esc
set tempo
stop
-----------------------------------------------------------------------------------------------
  
  Artist - MuDvAyNe
  Album  - L.D.50 (2000)
  Song   - Pharmaecopia
  Tabbed - Jakob Jugovic
  Mail   - jakobjugovic@gmail.com
  Year   - 2009

-----------------------------------------------------------------------------------------------

  TUNING:

  G
  D
  A
  E
  B

  p - pull
  h - hammer on
  / - slide upwards
  \ - slide downwards
  x - ghost note
  X - left hand ghost note
  S - slapping 
  F - 'fingerslapping'
  T - tapping - {#} base-note
  P - popping
  ~ - vibrato
  o - 1/4 (timescale)

-----------------------------------------------------------------------------------------------


  INTRO:

    o . . . o . . . o . . . o . . . o . . . o . . . 
G |-------------------------------------------------|
D |-------------------------------------------------|
A |-------------------------------------------------|
E |-------------------------------------------------|
B |-----------------0-0---0---0-6-0-0---0---0-------|
      (guitar)      F F   F   F F F F   F   F


    o . . . o . . . o . . . o . . . o . . .
G |-----------------------------------------|
D |-----------------------------------------|
A |-----------------------------------------|
E |-----------------------------------------|
B |-----------------0-0---0---0-6-0-0-------|
      (guitar)      F F   F   F F F F


    o . . . o . . . o . . . o . . . o . . . o . . . 
G |-------------------------------------------------|
D |-------------------------------------------------|
A |-------------------------------------------------|
E |-------------------------------------------------|
B |-----------------0-0---0---0-6-0-0---0---0-------|
      (guitar)      F F   F   F F F F   F   F


    o . . . o . . . o . . . o . . . o . . .
G |---------x-------------------------------|
D |-----------------------------------------|
A |-----------------------------------------|
E |-----------------------------------------|
B |-x-----x---x-x---0-0---0---0-6-0-0-------|
    S     S P S S   F F   F   F F F F


    o . . . o . . . o . . . o . . . o . . . o . . . 
G |---------x---------------------------------------|
D |-------------------------------------------------|
A |-------------------------------------------------|
E |-------------------------------------------------|
B |-x-----x---x-x---0-0---0---0-6-0-0---0---0-------|
    S     S P S S   F F   F   F F F F   F   F


    o . . . o . . . o . . . o . . . o . . .
G |---------x-------------------------------|
D |-----------------------------------------|
A |-----------------------------------------|
E |-----------------------------------------|
B |-x-----x---x-x---0-0---0---0-6-0-0-----xx|
    S     S P S S   F F   F   F F F F     FF


    o . . . o . . . o . . . o . . . o . . . o . . . 
G |-------------------------------------------------|
D |-------------------------------------------------|
A |-------------------------------------------------|
E |-------------------------------------------------|
B |-x-x-x---x-x---xx0-0---0---0-6-0-0---0---0-------|
    S S S   S S   FFF F   F   F F F F   F   F


    o . . . o . . . o . . . o . . . o . . .
G |---------x-------------------------------|
D |-----------------------------------------|
A |-----------------------------------------|
E |-----------------------------------------|
B |-x-----x---x-x---0-0---0---0-6-0-0-15\\\-|
    S     S P S S   F F   F   F F F F F         


  CHORUS 1:

    o . o . o . o . o . o . o . o . o . o . o .
G |---------------------------------------------|
D |-----------------------4-----------------5/7-|
A |---------------------------------------------|  x4
E |-----------------------2-----------------3/5-|
B |-0---0---6p5-0---1p0-x---6p5-0---1p0-2p0-----|
    S   S   S   S   S   S P S   S   S   S   P


  FILL A:

    o . . . o . . . o . . . o . . . o . . . o . . . o . . . o . . . o . . . o . . . o . . . 
G |-----------------------------------------------------------------------------------------|
D |-----------------------------------------------------------------------------------------|
A |--------<7>-----<7>-----<7>-----<7>-----<7>-----<7>-----<7>-----<7>-----<7>-----<7>------|
E |-----------------------------------------------------------------------------------------|
B |-0---------------------------------------------------------------------------------------|
    s

  FILL B:

    o . . . o . . . o . . . o . . .
G |---------------------------------|
D |---------------------------------|
A |---------------------------------|
E |---------------------------------|
B |-3-5-5-3-2-3-2-0-2-----------12\-|
    F F F F F F F F F           S


  VERSE:

    o . . . o . . . o . . . o . . .
G |---------------------------------|
D |---------------------------0-0-0-|
A |-------------------------4-------|
E |---------------------------------|
B |-0-3-2-2-0-1-1-0-0-3-2-2---------|
    F F F F F F F F F F F F F F F F


    o . . . o . . . o . . . o . . .
G |---------------------------------|
D |-------------------------2p0-0-0-|
A |---------------------------------|
E |---------------------------------|
B |-0-3-2-2-0-1-1-0-0-3-2-2---------|
    F F F F F F F F F F F F F   F F


    o . . . o . . . o . . . o . . .
G |---------------------------------|
D |-------------------------2p0-0-0-|
A |---------------------------------|
E |---------------------------------|
B |-0-3-2-2-0-1-1-0-0-3-2-2---------|
    F F F F F F F F F F F F F   F F


    o . . . o . . . o . . . o . . .
G |---------------------------------|
D |---------------------------------|
A |-----------------4p5-4---2-------|  1st ENDING
E |---------------------------------|
B |-0-3-2-2-0-1-1-0-------------0---|
    F F F F F F F F F   F   F   S  


    o . . . o . . . o . . . o . . .
G |-----------------7\6-6-6-\-4-4---|
D |---------------------------------|
A |-----------------5\4-4-4-\-2-2---|  2nd ENDING
E |---------------------------------|
B |-0-3-2-2-0-1-1-0-----------------|
    F F F F F F F F 


  CHORUS 2:

    o . . . o . . . o . . . o . . .
G |---------------------------------|
D |---------------------------------|
A |---------------------------------|  x4
E |---------------------------------|
B |-3-2-0---0---3-2-0---0---3-2-0---|
    F F F   F   F F F   F   F F F


  FILL B:

    o . . . o . . . o . . . o . . .
G |---------------------------------|
D |---------------------------------|
A |---------------------------------|
E |---------------------------------|
B |-3-5-5-3-2-3-2-0-2-----------12\-|
    F F F F F F F F F           S


  VERSE:

    o . . . o . . . o . . . o . . .
G |---------------------------------|
D |---------------------------0-0-0-|
A |-------------------------4-------|
E |---------------------------------|
B |-0-3-2-2-0-1-1-0-0-3-2-2---------|
    F F F F F F F F F F F F F F F F


    o . . . o . . . o . . . o . . .
G |---------------------------------|
D |-------------------------2p0-0-0-|
A |---------------------------------|
E |---------------------------------|
B |-0-3-2-2-0-1-1-0-0-3-2-2---------|
    F F F F F F F F F F F F F F F F


    o . . . o . . . o . . . o . . .
G |---------------------------------|
D |-------------------------2p0-0-0-|
A |---------------------------------|
E |---------------------------------|
B |-0-3-2-2-0-1-1-0-0-3-2-2---------|
    F F F F F F F F F F F F F F F F


    o . . . o . . . o . . . o . . .
G |-----------------6/7-6-------7---|
D |---------------------------5-----|
A |-----------------4/5-4-------5---|  1st ENDING
E |---------------------------------|
B |-0-3-2-2-0-1-1-0-----------------|
    F F F F F F F S


    o . . . o . . . o . . . o . . .
G |-----------------117-7-7-6/7-6\4-|
D |---------------------------------|
A |---------------2/9\5-5-5-4/5-4\2-|  2nd ENDING
E |---------------------------------|
B |-0-3-2-2-0-1-1-------------------|
    F F F F F F F S


  CHORUS 1:

    o . o . o . o . o . o . o . o . o . o . o .
G |---------------------------------------------|
D |-----------------------4-----------------5/7-|
A |---------------------------------------------| x8
E |-----------------------2-----------------3/5-|
B |-0---0---6p5-0---1p0-x---6p5-0---1p0-2p0-----|
    S   S   S   S   S   S P S   S   S   S   P


  CHORUS 2:

    o . . . o . . . o . . . o . . .
G |---------------------------------|
D |---------------------------------|
A |---------------------------------|  x4
E |---------------------------------|
B |-3-2-0---0---3-2-0---0---3-2-0---|
    F F F   F   F F F   F   F F F


    o . . . o . . . o . . .
G |------------------------|
D |------------------------|
A |------------------------|  x3
E |------------------------|
B |-3-2-0---0---3-2-0---0--|
    F F F   F   F F F   F


  FILL C:

    o . . . o . . . o . . . o . . .
G |---------------------------------|
D |---------------------------------|
A |---------------------------------|
E |---------------------------------|
B |-3-2-3---0---3-2-3-2-3---0-------|
    F F F   F   F F F F F   F


    o . . . o . . . o . . . o . . .
G |---------------------------------|
D |-------------------------------4-|
A |---------------------------------|
E |-----------------------------0---|
B |-3-2-3---0---3-2-3-2-0---2h3-----|
    F F F   F   F F F F F   S   S P


  BRIDGE:

    o . . . o . . . o . . . o . . .
G |-------------11----11----12--11--|
D |-------------12----12----12--12--|
A |-------0-/-/-10----10----10--10--|
E |---------------------------------|
B |---------------------------------|


    o . . . o . . . o . . . o . . .
G |---------------------------------|
D |---------------------------------|
A |---------------------------------|
E |---------------------------------|
B |-0-------------------------------|
    S


    o . . . o . . . o . . . o . . . o . . . o . . . o . . . o . . . 
G |-11----11----12----11--------------------------------------------|
D |-12----12----12----12--------------------------------------------|
A |-10----10----10----10--------------------------------------------|
E |-----------------------------------------------------------------|
B |---------------------------------0-------------------------------|
                                    S


    o . . . o . . . o . . . o . . . o . . . o . . . o . . . o . . . 
G |-11----11----12----11----14--11----------------------------------|
D |-12----12----12----12----12--12----------------------------------|
A |-10----10----10----10----10--10----------------------------------|
E |-----------------------------------------------------------------|
B |---------------------------------0-----------0-0-0-0---0---0-0---|
                                    S           F F F F   F   F F


    o . . . o . . . o . . . o . . . o . . . o . . . o . . . o . . . 
G |-11----11----12----11----14--------------------------------------|
D |-12----12----12----12----12--------------------------------------|
A |-10----10----10----10----10--------------------------------------|
E |-----------------------------------------------------------------|
B |---------------------------------0-----------0-0-0-0---0---0-0---|
                                    S           F F F F   F   F F


    o . . . o . . . o . . . o . . . o . . . o . . . o . . . o . . . 
G |-11----11----12----11--------------------------------------------|
D |-12----12----12----12--------------------------------------------|
A |-10----10----10----10--------------------------------------------|
E |-----------------------------------------------------------------|
B |---------------------------------0-------------------------------|
                                    S

 
    o . . . o . . . o . . . o . . . o . . . o . . . o . . . o . . . 
G |---------------------------------11----11----12----11----14--11-|
D |---------------------------------12----12----12----12----12--12-|
A |-------------------4-----2-4-5-/-10----10----10----10----10--10-|
E |-3--------------------------------------------------------------|
B |-------2-----3--------------------------------------------------|
    S     S     S     P


    o . . . o . . . o . . . o . . . o . . . o . . . o . . . o . . . 
G |-----------------------9/11------11----11----12----11----14--11-|
D |---------------------------------12----12----12----12----12--12-|
A |-----------------------7/9-------10----10----10----10----10--10-|
E |----------------------------------------------------------------|
B |-0-------12\---x-0-0--------------------------------------------|
    S       S     S S S


    o . . . o . . . o . . . o . . . o . . . o . . . o . . . o . . . 
G |-------------------------4/7-----11----11----12----11----14--11-|
D |---------------------------------12----12----12----12----12--12-|
A |-------------------------2/5-----10----10----10----10----10--10-|
E |----------------------------------------------------------------|
B |-0-0-----------0-0-0--------------------------------------------|
    S S           S S S


    o . . . o . . . o . . . o . . . o . . . o . . . o . . . o . . . 
G |---------------------------7-7---11----11----12----11----14--11-|
D |---------------------------------12----12----12----12----12--12-|
A |---------------------------5-5---10----10----10----10----10--10-|
E |----------------------------------------------------------------|
B |-0-------x---0-0-0-0---0----------------------------------------|
    S       S   S S S S   S


  INTRO

    o . . . o . . . o . . . o . . . 
G |---------------------------------|
D |---------------------------------|
A |---------------------------------|
E |---------------------------------|
B |-0-0---0---0-6-0-0---0---0-------|
    s s   s   s s s s   s   s


    o . . . o . . . o . . . o . . . o . . .
G |---------x-------------------------------|
D |-----------------------------------------|
A |-----------------------------------------|
E |-----------------------------------------|
B |-x-----x---x-x---0-0---0---0-6-0-0-------|
    s     s p s s   s s   s   s s s s


    o . . . o . . . o . . . o . . . o . . . o . . . 
G |---------x---------------------------------------|
D |-------------------------------------------------|
A |-------------------------------------------------|
E |-------------------------------------------------|
B |-x-----x---x-x---0-0---0---0-6-0-0---0---0-------|
    s     s p s s   s s   s   s s s s   s   s


    o . . . o . . . o . . . o . . . o . . .
G |---------x-------------------------------|
D |-----------------------------------------|
A |-----------------------------------------|
E |-----------------------------------------|
B |-x-----x---x-x---0-0---0---0-6-0-0->-----|
    s     s p s s   s s   s   s s s s


    o . . . . . o . . . . .  
G |-------------------------|
D |-------------------------|
A |-------------------------|  RINGED
E |-------------------------|
B |-0---0---0---0---0---0---|
    S   S   S   S   S   S


    o . . . . . o . . . . . o . . . . . o . . . . .
G |-------------------------------------------------|
D |----------------------------(5)------------------|
A |-------------0h3---------2-----------------------|  x10
E |-----------------------2-------------3p2---------|
B |-0-----------------------------------------------|


    o . . . o . . . o . . . o . . .
G |---------------------------------|
D |---------------------------------|
A |-----------------1-1-------------|  x3
E |---------------------1-1-4-4-1---|
B |-1-0-0-0-2-3-0-0-----------------|
    F F F F F F F F F F F F F F F


    o . . . o . . . o . . . o . . .
G |---------------------------------|
D |---------------------------------|
A |---------------------------------|  x5
E |---------------------------------|
B |-1-0-0-0-2-3-0-0-1-0-0-0-2-------|
    F F F F F F F F F F F F F


  FILL C:

    o . . . o . . . o . . . o . . .
G |---------------------------------|
D |---------------------------------|
A |---------------------------------|
E |---------------------------------|
B |-3-2-3---0---3-2-3-2-3---0-------|
    F F F   F   F F F F F   F


    o . . . o . . . o . . . o . . .
G |---------------------------------|
D |-------------------------------4-|
A |---------------------------------|
E |-----------------------------0---|
B |-3-2-3---0---3-2-3-2-0---2h3-----|
    F F F   F   F F F F S   S   S P


  ENDING:

    o . . . o . . . o . . . o . . . o . . . o . . . o . . . o . . . 
G |-11----11----12----11----14--11----------------------------------|
D |-12----12----12----12----12--12----------------------------------|
A |-10----10----10----10----10--10----------------------------------|
E |-----------------------------------------------------------------|
B |---------------------------------0-------------------------------|


Suggest correction
Creating personal tab
Creating personal tab
You can edit any tab online and save it as your Personal.

You can edit, replace or remove any tab part or add personal notes – all changes will be seen only by you.

Personal tabs can be accessed anytime from any device, even offline.
Learn more »
Give kudos to tab author, rate the tab!
1 2 3 4 5
comments
print report bad tab
guest
You may want to rate the tab now too:
select rating
Wanna post a correction for this tab? Suggest correction