Oops, an error
Loading. Please wait.

Tv Radio bass

version 2
version 2

Whole song

Interactive

255 views 1 this week
no commentswrite comment
1 2 3 4 5
3 more votes to show rating
add to favorites
×
Save as Personal and add changes to this tab that will be seen only by you. Learn more ›
×
You can save this tab as Personal to edit and correct it or add notes. All changes will be seen only by you. Learn more »
launch autoscroll
font size
0
reset
guitar tuner
edit
Autoscroll
slow
fast
+/-
esc
set tempo
stop
Author
Difficulty
Mudvayne - TV Radio

tuning (low to high) - C G C F

rest for 3 seconds

Fill 1 x1
   ssssssssssssssss    ssssssss
|-------------------|-----------|
|4------------------|2----------|
|4-6666666666666666-|4-66666666-|
|-------------------|-----------|

Riff 1A x1
   ssssssssssssssss    ssssssss
|-------------------|-----------|
|4------------------|2----------|
|4-1100331100331100-|4-331100---|
|-------------------|--------55-|

Fill 2A x1
   s ssssss e ssssss s    ssssse s
|----------------------|-----------|
|4------8--------------|2----88----|
|4-5h666-65/6-666865/6-|4--66--6\0-|
|----------------------|-----------|

Riff 1A x1

Fill 2B x1
   s ssssss e ssss e  s    e ssse s
|-----------------------|-----------|
|4------8---------------|2----88----|
|4-5h666-65/6-6668h10-8-|4-6-6--6\0-|
|-----------------------|-----------|

Riff 1A x1

Fill 2C x1
   s ssssss e ssss s s s    e ssse s
|------------------------|-----------|
|4-----------------------|2----------|
|4-5h666865/6-6668h10108-|4-6-6676\0-|
|------------------------|-----------|

Riff 1B x1
   ssssssssssssssss    ssssssss
|-------------------|-----------|
|4------------------|2----------|
|4-1100331100331100-|4-331100---|
|-------------------|--------33-|

Riff 2 x2
     ss e ss e  ssssssss   sss s ss e  sssss sss
|------------------------|-----------------------|
|4-----------------------|-----------------------|
|4-3h55-5----------------|-333-/-----------------|
|---------00-0-/87087057-|-------00-0-/870810057-|

  ssssssse ssss s e    s s s s s s  e sss sssss
|--------------------|--------------------------|
|--------------------|--------------------------|
|-----8-----------12-|-131313121212-8-----------|
|-8888-878-888108----|----------------320/57035-|

Rest for 1 beat

Fill 3 x1
  ssssssssssssssss    ssssssss
|------------------|-----------|
|------------------|2----------|
|------------------|4----------|
|-1111111111111111-|--11111111-|

Riff 1A x1

Fill 2A x1

Riff 1A x1

Fill 2D x1
   s ssssss  e  s sss e s    s sssss e
|-------------------------|------------|
|4------8-88h10-10887-----|2------8----|
|4-5h666-6------------8-0-|4-5h666-6-\-|
|-------------------------|------------|

Riff 1A x1

Fill 4 x1
   s sssssse ssss sss    e sss e s
|---------------------|------------|
|4--------------------|2-----------|
|4--------------------|4-----1-----|
|--0h1113101-1113h553-|--1-11--1-0-|

Riff 1B x1

Riff 2 x2

Rest for 2 beats

Riff 3 x2
   s sssss  e ssssssss    s sssss  e ss    s sssss   e ssss ssss   s sssss e s sssssss
|----------------------|----------------|------------------------|---------------------|
|4---------------------|5---------------|4-----------------------|---------------------|
|4--------0h1-11111111-|8--------1h3-33-|4---------0h1-1111/5056-|-------0-1-1/5553311-|
|--0h11110-------------|--0h11110-------|--0h11110---------------|-0h1110--------------|

Rest for 3 seconds

Riff 1A x1

Rest for 4 seconds

Riff 1B x1

Riff 2 x2

Riff 4 x1                                   _________________________________________
                                            |1.                                    ||
    ssssssssssssss e   sssssssssssss s s s    ssssssssssssss e   ssssssssssssssss  ||
||-------------------|----------------------|------------------|-------------------||
||o------------------|----------------------|------------------|------------------o||
||o------------------|----------------------|------------------|------------------o||
||--00000000333387-5-|-77777777888810101010-|-00000000333387-5-|-7777777788885555--||
________________________________________
|2.                                    |
  s sssssssssssss e   ssssssssssssssss |
|-------------------|------------------|
|-------------------|------------------|
|-------------------|------------------|
|-120000000333387-5-|-7777777788885555-|

hold open low C for 2 bars in 4/4
Suggest correction
Creating personal tab
Creating personal tab
You can edit any tab online and save it as your Personal.

You can edit, replace or remove any tab part or add personal notes – all changes will be seen only by you.

Personal tabs can be accessed anytime from any device, even offline.
Learn more »
Give kudos to tab author, rate the tab!
1 2 3 4 5
comments
print report bad tab
guest
You may want to rate the tab now too:
select rating
Wanna post a correction for this tab? Suggest correction