Oops, an error
Loading. Please wait.

De Frente Bass Tab

8 views 1 this week
no commentswrite comment
1 2 3 4 5
3 more votes to show rating
add to favorites
launch autoscroll
font size
0
reset
guitar tuner
×
Best way to learn
"De Frente"
Autoscroll
slow
fast
+/-
esc
set tempo
stop
iNtRo

D    F    C    x 4

eStE aRREgLO lO hACE eL BAJo

G-------2/3/2---------
D----2/3------5/3/2---
A--5----------------5
E---------------------


G-----5-----------------
D---3---3---------------
A-5--------3-------3----
E--------------3/5-------


  D          A#
  Puedo alcanzar el cielo
  D          C
  puedo elevarme

G-----------
D--2/3/2----
A-------3--5
E-----------


  D         A#
   no hay nada que me impida
  D           C
   poder tocarte.

G-----------
D--2/3/2----
A-------3--5
E-----------

  D       A#
   Me siento tan seguro
  D           C
   aqui en tus manos,

G-----------
D--2/3/2----
A-------3--5
E-----------

  D          A#
   desaparece el miedo,
  D           C
   no estoy temblando.


eN lA paRtE DEL cORO tENgAN
EN cUENTa qUE ES puRO sLAP
EStO ES tODO lO qUE hACE eL bAJO

    D A# D A
G-------------
D---7-3-7-2---
A--5-1-5-0----
E-------------

  D
Voy de frente
        A#
y no escondo la cara a lo que llega de repente.
    D
Voy de frente
      A
y no voy a detenerme no me importa lo que cueste.
     D
Voy de frente
          A#
y aunque siento que me caigo ,tu eres el que me hace fuerte.
     D
Voy de frente
         A
y no voy a detenerme no me importa lo que cueste.

  D  F     C
// Puedo gritar ( Que tu me haces volar).
  D   F     C
  Una vez mas ( Y no me soltaras) //


G-------------
D----3--2-5---
A--5-------0-3
E-------------

D-F-C

  D       F
   Puedo soñar despierto
  D           C
   y no tengo frenos,
  D       F
   y nunca faltas tu,
  D           C
   aqui en mis sueños.

    cOrO

   D A# D A
G--------------------
D---7-3-7-2---8/10/11
A--5-1-5-0-----------
E--------------------

  D             F
   No hay nada que me impida
  D         C
   poder tocarte
  D      F
   desaparece el miedo
  D            C
   no estoy temblando.

D-F-C
        D   F     C
Puedo gritar ( Que tu me haces volar
            D   F     C
Una vez mas (Y no me soltaras)

sALU"

A TODa La RAzA

DE gETsONG
JAJAJJAJAJAJ

SALU2
Suggest correction
Give kudos to tab author, rate the tab!
1 2 3 4 5
comments
print report bad tab
guest
You may want to rate the tab now too:
select rating
Wanna post a correction for this tab? Suggest correction