Oops, an error
Loading. Please wait.

Nuevo Bass

17 views 1 this week
no commentswrite comment
1 2 3 4 5
3 more votes to show rating
add to favorites
×
Save as Personal and add changes to this tab that will be seen only by you. Learn more ›
×
You can save this tab as Personal to edit and correct it or add notes. All changes will be seen only by you. Learn more »
save as personal
new!
launch autoscroll
font size
0
reset
guitar tuner
Autoscroll
slow
fast
+/-
esc
set tempo
stop
KE ONDA AMIGOS GOD BLESS YOU AHORA LES PASO ESTOS TABS.
DE BAJO QUE ESTAN A TODO DAR. SOLO OIGAN LA CANCION Y
LES SALDRAN IGUALES.
BIEN EN MATERIA DICE ASI..........

EMPIEZA CON PURA MUSICA

G----------------------------
D---6---6---3---------4------
A-4---3---1-----6---4---2s4--
E-------------4---2----------
SE REPITE DOS VECES Y SIGUE ESTE

G---------------------8---------
D-------------------8-----------
A---8---8---5---3-6-------------
E-6---5---3---1---------4s6-----
ESO ES EN LAS PRIMERAS ESTROFAS.
DESPUES ESTO.........

G------------------------
D--------------------------
A-----------4-4-4-4--------
E-6-4-2-2-2---------2-2-2-4--

Y EL DEL CORO ES ESTO:

G-------------------------------------------------------
D-------------------------------------------------------
A-4-4-4-4-2-2-2-----------------4-4-4-2-2-2---------2-2-2-
E---------------2-2-2-2-4-4-4-4-------------4-4-4-4------

DESPUES DEL CORO METEN ESTO PARA BAJAR AL Bb FACILOTE

G---------------
D---------------
A-2--------------
E---2------------

SE REPITE TODO OTRA VEZ.
HAY UN ESPACIO DE MUSICA DESPUES DEL CORO Y LAS FIGURAS SON ASI:

G-----------------------------8---------------------------
D---------------------------8---------------------------
A-6-6-6-6-----------------6------------------------------------
E---------6-6-6-6-4-4-4-4-------6-6-6-7-6-4---------------------------

DESPUES EL CORO Y LA FIGURA DE LA ENTRADA.
ES TODO DIOS LES BENDIGA.
ALGUNA DUDA ESCRIBAN A MI CORREO.
SE LA DEDICO A TODA LA BANDA QUE QUIERE IMPACTAR A SU CIUDAD.
Suggest correction
Give kudos to tab author, rate the tab!
1 2 3 4 5
comments
print report bad tab
guest
Wanna post a correction for this tab? Suggest correction