Oops, an error
Loading. Please wait.

Sigues Bass

12 views 1 this week
no commentswrite comment
1 2 3 4 5
3 more votes to show rating
add to favorites
launch autoscroll
font size
0
reset
guitar tuner
×
Best way to learn
"Sigues"
Autoscroll
slow
fast
+/-
esc
set tempo
stop
ESTAS SON LAS FIGURAS PRINCIPALES DEL BAJO EN LA ROLA
IGUAL Y AY MAS PERO ESAS SON LAS
BASICAS


       Fig. #1

B-1-3---1-1------------1-3---1-3-----------||
E-----1-----1-1-1-1-3------1-----1-1-1-1-3-||
A------------------------------------------||
D------------------------------------------||
G------------------------------------------||


       Fig. #2

B-1-3---------------1-3--------------------||
E-----1-1-1-1-1-1-1------------------------||
A------------------------------------------||
D------------------------------------------||
G------------------------------------------||

Fig. #3
B------4--||
E--2-1----||
_______________________________________________


INTRO: Fig. #1


           Fig. #2

No eres alguien que anda por alli
sin un lugar a donde ir
tienes claro que puedes llegar a ser
mejor de lo que muchos creen

           Fig. #3
sigues dando lo mejor sigues esforsandote si descansar
sigues dando lo mejor sigues dando todo sin mirar atras

           Fig. #1
sale sobrando lo que falta nada te puede hacer ir hacia atras
corre con todo l oque tengas sabes que nada te podra parar

           Fig.#2
nada es tan fuerte para detener lo que podras
llegar hacer lo que el planeo pensando solo en ti

BUENO ESPERO QUE LES SIRVA DE AYUDA AL MENOS EN LO BASICO
YA LO ARREGLOS Y ESA COSA POS DEPNDE DEL COCO
DE CADA UNO DE USTEDES

dudas davidelcasi@

Suggest correction
Give kudos to tab author, rate the tab!
1 2 3 4 5
comments
print report bad tab
guest
You may want to rate the tab now too:
select rating
Wanna post a correction for this tab? Suggest correction