Oops, an error
Loading. Please wait.

Tanto Chords

13 views 1 this week
no commentswrite comment
1 2 3 4 5
3 more votes to show rating
add to favorites
launch autoscroll
font size
0
reset
transpose
0
reset
simplify chords
display chords
guitar tuner
×
Best way to learn
"Tanto"
Autoscroll
slow
fast
+/-
esc
set tempo
stop
Saludos soy de chile y tengo una banda
que coverea varios grupos cristianos
nos llamamos Nazer espero les sirva esta tab y acordes
aki dejo mi mail en caso de consultas
Avantasian_1@


intro

        Gm                        F
e---------------------------------------------------------
b---------------------------------------------------------
g-----------7-7------7-7-7s8-7-5------5-5-----5-5-5s7-5---
d-------5-5------5-5--------------3-3-----3-3-----------8- x2
a---------------------------------------------------------
E---------------------------------------------------------

D-D#dim-D-D#dim distorcion

Gm-D#-D#dim-D#-D#dim  x2

         Gm
El cielo abierto
         F
mis ojos cerrados
        Gm
solo estamos
         F
tu y yo

"mismas notas verso anterior"

es el momento
que yo esperaba
y sin tardar
quiero expresar

PUENTE

D#                       F
que desde que tu estas nada a vuelto a ser igual
D#                       F
contigo quiero estar pues te necesito


CORO

 G#m
tanto
  D#
tanto
  D#dim
jamas podre ocultarlo

MISMAS NOTAS ANTERIORES

tanto
tanto
te necesito tanto

"segunda parte exactamente igual en notas"

fui buscando
por todas partes
E razon
para existir

en un momento
nos encontramos
y tu amor
me abrazo

y desde entonces nada a vuelto a ser igual
contigo quiero estar pues te necesito

tanto
tanto
jamas podre ocultarlo

tanto
tanto
te necesito tanto

riff final

F-F-F-Gm
D#-D#dim-D#-D#dim    todo esto por 2 y fin


D#dim

e-----------
b-----------
g--------8--
d--------7--
a--------6--
E-----------
Suggest correction
Give kudos to tab author, rate the tab!
1 2 3 4 5
comments
print report bad tab
guest
You may want to rate the tab now too:
select rating
Wanna post a correction for this tab? Suggest correction