Oops, an error
Loading. Please wait.

Sinergia Bass Tab

42 views 1 this week
no commentswrite comment
1 2 3 4 5
3 more votes to show rating
add to favorites
launch autoscroll
font size
0
reset
guitar tuner
Autoscroll
slow
fast
+/-
esc
set tempo
stop
Help us to improve Ultimate-Guitar.com Take our survey!
×
intro

----------------------------------------------------
--------------------------------0h2-----------------
----------------------------------------------------
----------0-----------------------------------------
                                s

----------------------------------------------------
----0-2---0-4h5---0-2---0-4h5---0-2---0-4h5---------
----------------------------------------------------
----------------------------------------------------
    s s   s s     s s   s s     s s   s s

----------------
---0-2---0-4h5--
----------------
----------------
   s s   s s

verso
                        (cuantas veces sea necesario)
----------------------------------------------------
----------------------------------------------------
----------0-0-2-2--10-10-10-------------------------
----0-0---------------------------------------------

1er verso              2do verso

---------16----------/----------/--------16---------16-
--15h16------15/17---\----------\--15h16-----15h16-----
---------------------/----------/----------------------
---------------------\---0------\----------------------

coro

------------------------------------------------------
------------------------------------------------------
------0-2---------0-2----------0-2--------0-2---------
---0-----------0---------0--0----------0--------------

puente

-----------------------------------------------------
-----------------------------------------------------
-----------------------------------2-3-4-------------
--0-1-0-1-0-1--(hartas veces)------------------------


outro

-----------------------------------------------------
-----------------------------------------------------
--------0-2-3-4------5-6-7---------------------------
-----0------------------------0----------------------
Suggest correction
Give kudos to tab author, rate the tab!
1 2 3 4 5
comments
print report bad tab
guest
You may want to rate the tab now too:
select rating
Wanna post a correction for this tab? Suggest correction