Oops, an error
Loading. Please wait.

El Ritmo En Tres Colores Tab

22 views 1 this week
no commentswrite comment
1 2 3 4 5
3 more votes to show rating
add to favorites
launch autoscroll
font size
0
reset
how to read this tab
guitar tuner
Autoscroll
slow
fast
+/-
esc
set tempo
stop
Help us to improve Ultimate-Guitar.com Take our survey!
×
Intro
(Am       D) x3
e|-----------------------------------------------------------------|
B|-------------5----------------------------5-5-----5-5------5-5---|
G|--2-4-5-2------7----5-4----2--4-5-----5-5-----5-5------5-5-------|
D|----------------------------------2------------------------------|
A|-----------------------------------------------------------------|
E|-----------------------------------------------------------------|

e|-----------5-----5-7-8---7-5---5-5--5----5-----------------------|
B|----3--5-----5---------------9---------9---------5-5-----5-5-----|
G|--5------5-----------------------------------5-5-----5-5-----5-5-|
D|-----------------------------------------------------------------|
A|-----------------------------------------------------------------|
E|-----------------------------------------------------------------|

e|--------------------|
B|-5-5----3-----------|
G|------5-------------|
D|--------------------|
A|--------------------|
E|--------------------|


Am                                G
Este es el ritmo que viene con el mar
Am                                 G
Con la fuerza de un sueño en tres colores
C             G           Am
Es el canto vivo en las naciones
        G      F          Am
Es la palabra que se puede bailar  Uhhh Ye Ehh


Coro  (Am  -  D)
Reggae reggae reggae reggae regalanos tu voz
tenemos que cantar para que salga el sol
reggae reggae reggae reggae regalanos tu voz
para decir que no queremos esta situación

Hay que decir?
(Am  -   D)
En esta discusión no no se puede seguir
si soy negro y tú blanco no podemos ni hablarnos
Zimbawe Etiopía y ni hablar de Somalia
En Sudáfrica no hay paz el color es radical


Intro    (Am   -     D)  x3


Am                            G
Hoy la gente busca una respuesta aquí en esta tierra

Am                       G
Y no hay quien quiera asomarla
C             G                 Am
Vamos vamos pronto hay que encontrarla
         G       F                Am
Porque mañana quien sabe cuanto cuesta Uhh Ye Ehh


Coro  (Am  -  D)
Reggae reggae reggae reggae regalanos tu voz
tenemos que cantar para que salga el sol
reggae reggae reggae reggae regalanos tu voz
para decir que no queremos esta situación

Solo de Saxo (Am   -   D) x4


(Am    -       D)
Que me regales tu voz
para decirles a este mundo
que ya esta bueno de tanta guerra
que ya esta bueno de tanta hambre
ay ay ay hay que contar los alambres
los alambres de la indiferencia
hasta cuando nuestra indolencia
con esa gente que espera el amor

                                 Am - G - C
que poco a poco se quedan sin soooool


Coro x2  (Am  -  D)
Reggae reggae reggae reggae regalanos tu voz
tenemos que cantar para que salga el sol
reggae reggae reggae reggae regalanos tu voz
para decir que no queremos esta situación


Colaboración de Juan Moreno desde Venezuela
Suggest correction
Give kudos to tab author, rate the tab!
1 2 3 4 5
comments
print report bad tab
guest
You may want to rate the tab now too:
select rating
Wanna post a correction for this tab? Suggest correction