Oops, an error
Loading. Please wait.

Not For The Dough Tab

1,042 views 1 this week
1 commentread comment
1 2 3 4 5
x 4
add to favorites
launch autoscroll
font size
0
reset
how to read this tab
guitar tuner
Autoscroll
slow
fast
+/-
esc
set tempo
stop
Help us to improve Ultimate-Guitar.com Take our survey!
×
Author
Gruppe: Multicyde
Sang: Not For The Dough 
CD: Multicydal

|------0-----5-7/8-7-5---3---0-------------------------------------------
|------------------------------------1--3/5-5/6-3---1-3/5-3-1-0----------
|------------------------------------------------------------------------
|------------------------------------------------------------------------
|------------------------------------------------------------------------
|------------------------------------------------------------------------


bobus@pjokk.com
Suggest correction
comments
print report bad tab
1 comment total.
-1 reply
birte-elise 11 Aug 10, 2014 07:05 PM

Isn't it supposed to be

|------0-----5-7/8-7-5---3---0-------------------------------------------
|------------------------------------1--3--5--6--5-3---1-3/5-3-1-0-------
|------------------------------------------------------------------------
|------------------------------------------------------------------------
|------------------------------------------------------------------------
|------------------------------------------------------------------------

I might be wrong but that's how I play it... Anyways great tab man thanks

guest
You may want to rate the tab now too:
select rating
Wanna post a correction for this tab? Suggest correction