Oops, an error
Loading. Please wait.

After The Storm Tab

version 3
version 3

Whole song

Interactive

5,121 views 3 this week
no commentswrite comment
1 2 3 4 5
accurate
x 3
add to favorites
launch autoscroll
font size
0
reset
how to read this tab
guitar tuner
Autoscroll
slow
fast
+/-
esc
set tempo
stop
Help us to improve Ultimate-Guitar.com Take our survey!
×
Author
Song Title: After The Storm
Artist: Mumford and Sons
Album Title: Sigh No More

Intro:
e|------||
B|-----:||
G|--4---||
D|--0---||
A|-----:||
E|--3---||

Verse:
e|------------------||-----------------------------------------||
B|-----------------:||-----------------------------------------||
G|-4-----5--2--4----||-7--5--9--12--11--12--11--14--16--12--11-||
D|-0-----0--0--0----||-----------------------------------------||
A|-----------------:||-----------------------------------------||
E|-3-----5--2--3----||-7--5--8--12--10--12--10--14--15--12--10-||

Pre-Chorus:
e|--------------|-----------------||
B|--------------|--------1-------:||
G|--4--5--4--2--|--0-----0---0----|| 
D|--0--0--0--0--|--2-----2---0----||
A|--------------|--2-----3---2---:||
E|--3--5--3--2--|--0---------3----||
                   Em    C   G
Chorus:
e|--0---0---3----||
B|--1---0---0---:||
G|--0---0---0----||
D|--2---2---0----||
A|--3---2---2---:||
E|------0---3----||
    C   Em  G

Verse:
And after the storm,
I run and run as the rains come
And I look up, I look up,
on my knees and out of luck,
I look up

Night has always pushed up day
You must know life to see decay
But I won't rot, I won't rot
Not this mind and not this heart,
I won't rot

Pre-Chorus
And I took you by the hand
And we stood tall,
And remembered our own land,
What we lived for

Chorus:
And there will come a time, you'll see, with no more tears
And love will not break your heart, but dismiss your fears
Get over your hill and see what you find there
With grace in your heart and flowers in your hair

Verse:
And now I cling to what I knew
I saw exactly what was true
But oh no more.
That's why I hold,
That's why I hold with all I have.
That's why I hold.

Pre-Chorus:
I will die alone and be left there.
Well I guess I'll just go home,
Oh God knows where.
Because death is just so full and mine so small.
Well I'm scared of what's behind and what's before.

Chorus: x 2
And there will come a time, you'll see, with no more tears
And love will not break your heart, but dismiss your fears
Get over your hill and see what you find there
With grace in your heart and flowers in your hair
Suggest correction
Give kudos to tab author, rate the tab!
1 2 3 4 5
comments
print report bad tab
guest
You may want to rate the tab now too:
select rating
Please do not post tabs as comments. Select "correction" instead!