Oops, an error
Loading. Please wait.

After The Storm Tab

version 4
version 4

Whole song

Interactive

35,398 views 123 this week
1 commentread comment
1 2 3 4 5
excellent!
x 18
add to favorites
launch autoscroll
font size
0
reset
how to read this tab
guitar tuner
Autoscroll
slow
fast
+/-
esc
set tempo
stop
Help us to improve Ultimate-Guitar.com Take our survey!
×
Author
Difficulty
Jarooko 53
intermediate
Tuning: EADGBe (standard);
Capo: no capo;


[Intro]

 [   0   ]
e|-------|
B|-------|
G|-----4-|    repeat [0] a couple of times
D|-0-----|
A|-------|
E|---3---|


[Verse]

 [                               1                              ]
e|--------------------------------------------------------------|
B|--------------------------------------------------------------|
G|-----4------4-----5-------4-------2-------2-------4-------4---|   repet [1] once more
D|-0------0-----0-------0-------0-------0-------0-------0-------|
A|--------------------------------------------------------------|
E|---3------3-----5---5---3---3---2---2---2---2---3---3---3---3-|

e|--------------------------------------------------------------------------------|
B|--------------------------------------------------------------------------------|
G|-----7-------5-------9-------9---------12---------11---------11---------12------|
D|-0-------0-------0-------0--------0----------0----------0----------0----------0-|
A|--------------------------------------------------------------------------------|
E|---7---7---5---5---8---8---8---12---12----12---10----10---10----10---12----12---|

------------------------------------------------------------------------------------------|
------------------------------------------------------------------------------------------|
----11---------14---------16---------12---------11---------11---------11---------11-------|
----------0----------0----------0----------0----------0----------0----------0-------------|
------------------------------------------------------------------------------------------|
-10----10---14----14---15----15---12----12---10----10---10----10---10----10---10----10----|


[Pre-Chorus]

e|-------------------------------------0-------------------------------------|
B|-------------------------0---------------0---------1-----------------------|
G|---5---4---2---2-----0-------0---------------0---------0-------0-------0---|
D|-0---0---0---0---2-----2---------2-------------------------0-------0-------|
A|-------------------------------------------3-----3---3---------------------|
E|-------------------0-------0---0-------0-----------------3---3---3---3-----|


[Chorus]

 [                                 2                               ]
e|-----------------------------------------------------------------|
B|-----------------------------------------------------------------|
G|-------0-------0-------0-------0-------0-------0-------0-------0-|repeat [2] 3 more times
D|---2-------2-------2-------2-------0-------0-------0-------0-----|
A|-3---3---3---3---2---2---2---2-----------------------------------|
E|---------------------------------3---3---3---3---3---3---3---3---|


[Interlude]

e|--------------------------------------------------------------0---|
B|----------------------------------------------------0-------------|
G|-----4------4-----5-------4-------2-------2-------4---------4-----|
D|-0------0-----0-------0-------0-------0-------0---------0---------|
A|------------------------------------------------------------------|
E|---3------3-----5---5---3---3---2---2---2---2---3-----3---3-----3-|


[Outro]

e|---------------------------------2---------------------------------0--|
B|----------------------------------------------------------------------|
G|-----0-------0-------0-------0---------0-------0-------0-------0------|
D|-0-------0-------0-------0---------0-------0-------0-------0----------|
A|----------------------------------------------------------------------|
E|---3---3---3---3---3---3---3---3-----3---3---3---3---3---3---3---3----|

e|--------------------------------------------|
B|--------------------------------------------|
G|-----4-------5-------4-------2-------4------|
D|-0-------0-------0-------0-------0----------|
A|--------------------------------------------|
E|---3---3---5---5---3---3---2---2---3---3----|


Structure of the song:

[Intro]

[Verse 1]

[Verse 2]

[Pre-Chorus 1]

[Chorus 1]

[Interlude]

[Verse 3]

[Pre-Chorus 2]

[Chorus 2]

Preechorus 2 is twice the size of Preechorus 1, the same tabs apply twice.
Verse 3 has an Interlude before it, and it's the same as first parts of Verses 1 and 2, 
with a slight change (see the tabs above, marked Interlude).
Suggest correction
What's this?
You can suggest a correction to this tab. Community and Mods will review your correction and vote to approve or reject it.
comments
print report bad tab
1 comment total.
0 reply
Zckmyers@gmail. 20 wrote on December 10 2013, 06:28 pm

Awesome tab! Thanks so much!

guest
You may want to rate the tab now too:
select rating
Please do not post tabs as comments. Select "correction" instead!