Oops, an error
Loading. Please wait.

Awake My Soul Tab

version 4
version 4
3,876 views 30 this week
1 commentread comment
1 2 3 4 5
excellent!
x 1
add to favorites
launch autoscroll
font size
0
reset
how to read this tab
guitar tuner
Tab Pro tools
  • play this tab
  • loop segment
  • change instrument
  • show fretboard
  • metronome
×
Best way to learn
"Awake My Soul"
Autoscroll
slow
fast
+/-
esc
set tempo
stop
Contributor
Difficulty
Tuning
intermediate
C F A# D# G C
Tuning: Open C 6th  CACGCE

Chord Chart: Don't know the names so I'll just name them.

x - muted string

  Am B  C  D  E  F  G  A
e-0--0--0--0--0--0--0--0--|
C-0--0--0--0--0--0--0--0--|
G-2--0--0--0--0--0--0--0--|
C-0--0--0--0--0--0--0--0--|
A-0--2--3--5--7--8--10-12-|
C-X--0--0--2--4--5--7--9--|

----------------------------------------

Intro: The intro is actually a banjo and you can hear Marcus swapping
between two chords when it's playing but here they are combined.
Listen to it!

e---------------------------------------|
C-0-0-0-0-0-0-0-0-0--0-0-0--0-0-0-0-0---|
G---------------------------------------|
C--0-0-0-0-0-0-0-0--0-0-0----0-0-0-0-0--|
A-------------------3------5-3----------|
C-------------------0------2-0----------|

----------------------------------------

Verse

    C                       D        C
How fickle my heart and how woozy my eyes
  C                    D             C
I struggle to find any truth in your lies
    C                        D              C
And now my heart stumbles on things I don't know
     C                      D       C
This weakness I feel I must finally show
C                           D            C
Lend me your hand and we'll conquer them all
    C                           D            C
But lend me your heart and I'll just let you fall
C                       D               C
Lend me your eyes I can change what you see
         C                   D       C
But your soul you must keep, totally free

---------------------------------------------

Bridge
B   Am   B   C    B   Am   B   C
Har har, har har, har har, har har

e--------------------------|
C--0--0--0--0--0--0--0--0--|
G--0--2--2--2--0--0--0--0--|
C--------------------------|
A-2--0--0--0--2--3--3--3---|
C-0-----------0--0--0--0---|

---------------------------------------------

Interlude

         F              C              Am             C
In these bodies we will live, in these bodies we will die
      F               C     Am              C
Where you invest your love, you invest your life

e-----0------0------0------0--------------0---|
C----0-0----0-0----0-0----0-0----0----0---0---|
G---0---0--0---0--2---2--0---0--0-0--0-0--0---|
C-----------------------------------------0---|
A----------------0------3-----------------7---|
C--5------0--------------------5----5-----5---|

or

e-------------------------------------|
C----0----0----0----0----0----0---0---|
G---0-0--0-0--2-2--0-0--0-0--0-0--0---|
C---------------------------------0---|
A------------0----3---------------7---|
C--5----0--------------5----5-----5---|

You decide.

---------------------------------------------------

Chorus

 C       F
Awake my soul
 C       F
Awake my soul
   C    F   G  A
Aaawaaaaake my soul
    F   E    D    C  F    E    D B
For you were made to meet your maker
 C       F
Awake my soul
 C       F
Awake my soul
 C     F   G  A
Aawaaaaake my soul
    F   E    D    C  F    E    D B
For you were made to meet your maker

-------------------------------------------
comments
We did not receive enough feedback on this tab! Please rate:
print report bad tab
1 2 3 4 5
1 comment total.
0 reply
Adriatic wrote on March 15 2015, 02:16 pm, edited at 03:23 pm

great tab, yours is the only one that gets everything right. this is exactly how marcus plays in most live performances and on the album.

there's a small mistake in the chorus, it goes like this and not the other way around
_F_______C
Awake my soul
_F_______C
Awake my soul

plus, for easier reading, you might edit the verse bit so it looks like this, because the verse is in 7/4 time signature:

___C______D__C
e|----------------------|
C|-0--0--0--0--0--0--0--|
G|----------------------| x4
C|--0--0--0--0--0--0--0-|
A|--3-----5--3----------|
C|--0-----2--0----------|

I want to post or [tab]
guest
You may want to rate the tab now too:
select rating
Please do not post tabs as comments. Select "correction" instead!