Oops, an error
Loading. Please wait.

Awake My Soul Tab

version 6
version 6
880 views 3 this week
no commentswrite comment
1 2 3 4 5
please rate
add to favorites
launch autoscroll
font size
0
reset
how to read this tab
guitar tuner
Tab Pro tools
  • play this tab
  • loop segment
  • change instrument
  • show fretboard
  • metronome
×
Best way to learn
"Awake My Soul"
Autoscroll
slow
fast
+/-
esc
set tempo
stop
Contributor
Difficulty
Capo
novice
2nd fret
TUNING: EACGCe (Capo 2nd fret)


NOTE: THIS IS NOT THE EXACT AMOUNT OF TIMES YOU PLAY EACH PATTERN

How fickle my heart and how woozy my eyes...
e|------------------------------------------|
C|-----0-----0-----0-----0-----0-----0------|
G|------------------------------------------|
C|--0-----0-----0-----0-----0-----0-----0---|
A|------------------------------------------|
E|------------------------------------------|

Lend me your hand and we'll conquer them all...
e|--0-------------------------0----------0--|
C|--0------0----0----0----0---0----------0--|
G|--0-------------------------0----------0--|
C|--0-------------------------0----------0--|
A|--3---3----3----3----3------5----------3--|
E|----------------------------3-------------|

    Har Har             Har  Har
e|-------------------------------------------|
C|-----0----0----0----0----0----0----0----0--|
G|-------------------------------------------|
C|-------------------------------------------|     x2
A|--2----0----0----0----2----3----3----3-----|
E|-------------------------------------------| 

Awake my soul...
e|------------------------------------------|
C|-----0-----0-----0-----0-----0-----0-----0|
G|------------------------------------------|
C|------------------------------------------|
A|--------------------------3-----3-----3---|
E|--5-----5-----5-----5---------------------|

--------

In these bodies we will live, in these bodies we will die...
e|-------------------------------------------------------|
C|-------------------------------------------------------|
G|------0---------------0---------------2--------------0-|
C|------0---------------0---------------0--------------0-|     x2
A|------8---------------3---------------0--------------3-|
E|-------------------------------------------------------|

In these bodies we will live, in these bodies we will die...
e|-------------------------------------------------------|
C|---------0----------0------------0-------------0-------|
G|-------0---0--------0----------2---2-----------0-------|
C|-----0------------0----------0---------------0---------|     x2
A|--8------------3----------0---------------3------------|
E|-------------------------------------------------------|

e|--------------------------------0---------|
C|--------------------------------0---------|
G|---------0------------0---------0---------|
C|------0-----0------0------------0---------|
A|--------------------------------3---------|
E|--1------------1--------------------------|

e|-0-0-0-0-0-0-0-0-0-0-0-0-0-0-0-0-0-0-0-0-0-|
C|-0-0-0-0-0-0-0-0-0-0-0-0-0-0-0-0-0-0-0-0-0-|
G|-0-0-0-0-0-0-0-0-0-0-0-0-0-0-0-0-0-0-0-0-0-|
C|-0-0-0-0-0-0-0-0-0-0-0-0-0-0-0-0-0-0-0-0-0-|
A|-3-3-3-3-3-3-3-3-3-3-3-3-3-3-3-3-3-3-3-3-3-|
E|-0-0-0-0-0-0-0-0-0-0-0-0-0-0-0-0-0-0-0-0-0-|

e|-0-0-0-0-0-0-0-0-0-0-0-0-0-0-0-0-0-0-0-0-0-|
C|-0-0-0-0-0-0-0-0-0-0-0-0-0-0-0-0-0-0-0-0-0-|
G|-0-0-0-0-0-0-0-0-0-0-0-0-0-0-0-0-0-0-0-0-0-|
C|-0-0-0-0-0-0-0-0-0-0-0-0-0-0-0-0-0-0-0-0-0-|    x2
A|-8-8-8-8-8-8-8-8-8-8-3-3-3-3-3-3-3-3-3-3-3-|
E|-5-5-5-5-5-5-5-5-5-5-0-0-0-0-0-0-0-0-0-0-0-|

e|-0-0-0-0-0-0-0-0-0-0--0--0-0-0-0-0-0-0-0-0-|
C|-0-0-0-0-0-0-0-0-0-0--0--0-0-0-0-0-0-0-0-0-|
G|-0-0-0-0-0-0-0-0-0-0--0--0-0-0-0-0-0-0-0-0-|
C|-0-0-0-0-0-0-0-0-0-0--0--0-0-0-0-0-0-0-0-0-|
A|-8-8-8-8-8-8-8-8-8-8--10-12-12-12-12-12-12-|
E|-5-5-5-5-5-5-5-5-5-5--7--9--9--9--9--9--9--|

e|--0----0----0----0--|
C|--0----0----0----0--|
G|--0----0----0----0--|
C|--0----0----0----0--|
A|--8----7----5----2--|
E|--4----3----2----0--|

e|--0----0----0----0----0-0-0-0-0-|
C|--0----0----0----0----0-0-0-0-0-|
G|--0----0----0----0----0-0-0-0-0-|
C|--0----0----0----0----0-0-0-0-0-|
A|--8----7----5----2----3-3-3-3-3-|
E|--4----3----2----0----0-0-0-0-0-|

Awake my soul...

e|-0-0-0-0-0-0-0-0-0-0-0-0-0-0-0-0-0-0-0-0-0-|
C|-0-0-0-0-0-0-0-0-0-0-0-0-0-0-0-0-0-0-0-0-0-|
G|-0-0-0-0-0-0-0-0-0-0-0-0-0-0-0-0-0-0-0-0-0-|
C|-0-0-0-0-0-0-0-0-0-0-0-0-0-0-0-0-0-0-0-0-0-|    x2
A|-8-8-8-8-8-8-8-8-8-8-3-3-3-3-3-3-3-3-3-3-3-|
E|-5-5-5-5-5-5-5-5-5-5-0-0-0-0-0-0-0-0-0-0-0-|

Awake         my  soul...

e|-0-0-0-0-0-0-0-0-0-0--0--0-0-0-0-0-0-0-0-0-|
C|-0-0-0-0-0-0-0-0-0-0--0--0-0-0-0-0-0-0-0-0-|
G|-0-0-0-0-0-0-0-0-0-0--0--0-0-0-0-0-0-0-0-0-|
C|-0-0-0-0-0-0-0-0-0-0--0--0-0-0-0-0-0-0-0-0-|
A|-8-8-8-8-8-8-8-8-8-8--10-12-12-12-12-12-12-|
E|-5-5-5-5-5-5-5-5-5-5--7--9--9--9--9--9--9--|

#1 | For you were made to 

e|--0----0----0----0--|
C|--0----0----0----0--|
G|--0----0----0----0--|
C|--0----0----0----0--|
A|--8----7----5----2--|
E|--4----3----2----0--|

      meet you maker...

e|--0----0----0----0----0-0-0-0-0-|
C|--0----0----0----0----0-0-0-0-0-|
G|--0----0----0----0----0-0-0-0-0-|
C|--0----0----0----0----0-0-0-0-0-|
A|--8----7----5----2----3-3-3-3-3-|
E|--4----3----2----0----0-0-0-0-0-|

#2 | You were made to 

e|--0----0----0----0--|
C|--0----0----0----0--|
G|--0----0----0----0--|
C|--8----7----5----2--|
A|--4----3----2----0--|
E|--------------------|

      meet you maker...

e|--0----0----0----0---0-|
C|--0----0----0----0---0-|
G|--0----0----0----0---0-|
C|--8----7----5----2---0-|
A|--4----3----2----0---3-|
E|---------------------0-|
comments
We did not receive enough feedback on this tab! Please rate:
print report bad tab
1 2 3 4 5
I want to post or [tab]
guest
You may want to rate the tab now too:
select rating
Please do not post tabs as comments. Select "correction" instead!