Oops, an error
Loading. Please wait.

Believe solo tab

version 2
version 2

Solo

Whole song

1,218 views 6 this week
no commentswrite comment
1 2 3 4 5
2 more votes to show rating
add to favorites
×
Save as Personal and add changes to this tab that will be seen only by you. Learn more ›
×
You can save this tab as Personal to edit and correct it or add notes. All changes will be seen only by you. Learn more »
launch autoscroll
font size
0
reset
how to read this tab
guitar tuner
edit
Autoscroll
slow
fast
+/-
esc
set tempo
stop
Author
-------------------------------------------------------------------------------
                             Believe - Mumford & Sons
-------------------------------------------------------------------------------
Tabbed by: voxsupreme (Tony)
E-mail: anton_lednev@hotmail.com

Tuning: Standard

e|--10\--------------------------------------------------------x-x-x---|
B|--10\------------------------------------------/15-15-15-15\-x-x-x---|
G|-----------------9/11----11-11-14-11-14-11-14----------------x-x-x---|
D|--------9---7------------------------------------------------x-x-x---|
A|-------------------------------------------------------------x-x-x---|
E|-------------------------------------------------------------x-x-x---|

e|-----------------/14--14-14-14-14\--x-x-x--/14--14-14\---------------|
B|-/15-15-15\------/17b-17-17-17-17\--x-x-x--/17b-17-17\---------------|
G|------------------------------------x-x-x----------------------------|
D|------------------------------------x-x-x----------------------------|
A|------------------------------------x-x-x----------------------------|
E|------------------------------------x-x-x----------------------------|

e|-14-15-15/17-17-17-17-17--------------10-------10-12-12b-10----------|
B|-----------------------------10h11h12----10h12-----------------------|
G|---------------------------------------------------------------------|
D|---------------------------------------------------------------------|
A|---------------------------------------------------------------------|
E|---------------------------------------------------------------------|

Saw a lot of tabs on this solo that either just didn't capture the full sound or were copying the live version.
But, I'm pretty positive this one is the solo that is in the Studio/Album version of the song. Hope it helps!

Any questions can be sent to my e-mail above!

P.S. there is some weird fuzz sliding/chugging effects that are scattered throughout (most notably after the
notes on the 10th fret right in the beginning), those are weird to tab out, so hope this helps with just the
main melody.

************************************

| /   slide up
| \   slide down
| h   hammer-on
| p   pull-off
| ~   vibrato
| +   harmonic
| x   Mute note
| b   Bend
| pb  Pre-bend
| br  Bend release
| pbr Pre-bend release
| brb Bend release bend

************************************

            
            
Suggest correction
Creating personal tab
Creating personal tab
You can edit any tab online and save it as your Personal.

You can edit, replace or remove any tab part or add personal notes – all changes will be seen only by you.

Personal tabs can be accessed anytime from any device, even offline.
Learn more »
Give kudos to tab author, rate the tab!
1 2 3 4 5
comments
print report bad tab
guest
You may want to rate the tab now too:
select rating
Wanna post a correction for this tab? Suggest correction