Oops, an error
Loading. Please wait.

Below My Feet Tab

version 2
version 2

Whole song

  • Incorporates the melody in the tab, so the guitar sings.

Interactive

67,741 views 87 this week
5 commentsread comments
1 2 3 4 5
excellent!
x 61
add to favorites
launch autoscroll
font size
0
reset
how to read this tab
guitar tuner
Autoscroll
slow
fast
+/-
esc
set tempo
stop
Help us to improve Ultimate-Guitar.com Take our survey!
×
Author
Difficulty
Capo
intermediate
4th fret
Below My Feet - Mumford And Sons

Tuning: Standard
Capo 4

G/F# [200033]

e|-------------|
B|--8-----8----|
G|------9------| x8
D|-------------|
A|--7-7-----7--|
E|-------------|

e|--------------------------------------------------------------------|
B|--8-----8----8-----8----3-----3----3-----3----7-----7----7-----7----|
G|------9----------9----------4----------4----------7----------7------|
D|--------------------------------------------------------------------|
A|----------------------------------------------5-5-----5--5-5-----5--|
E|--8-8-----8--8-8-----8--3-3-----3--3-3-----3------------------------|

e|---------------------------------------------------------|
B|--8-----8----7-----7----5-----5----5-----5----5-----5----|
G|------9----------7----------5----------5----------5------|
D|---------------------------------------------------------|
A|--7-7-----7--5-5-----5--3-3-----3--3-3-----3--3-3-----3--|
E|---------------------------------------------------------|

e|----------------------------------------------|
B|----------------------------------------------|
G|--2-----2----0-----0----0-----0----0-----0----| x2
D|------0----------0----------0----------0------|
A|----------------------------------------------|
E|--2-2-----2--3-3-----3--3-3-----3--3-3-----3--|

e|--------------------------------------------------------------------|
B|----------------------------------------------1-----1----1-----1----|
G|--0-----0----0-----0----0-----0----0-----0--------0----------0------|
D|------0----------0----------0----------0----------------------------|
A|----------------------------------------------3-3-----3--3-3-----3--|
E|--3-3-----3--3-3-----3--3-3-----3--3-3-----3------------------------|

e|----------------------------------------------|
B|------------------------1-----1----1-----1----|
G|--0-----0----0-----0--------0----------0------|
D|------0----------0----------------------------|
A|------------------------3-3-----3--3-3-----3--|
E|--3-3-----3--3-3-----3------------------------|

e|---------------------------------------------------------|
B|---------------------------------------------------------|
G|--0-----0----2-----2----0-----0----0-----0----0-----0----|
D|------0----------0----------2----------2----------2------|
A|---------------------------------------------------------|
E|--3-3-----3--2-2-----2--0-0-----0--0-0-----0--0-0-----0--|

e|-----------------------------------------------------------|
B|--1-----1----0-----0----0h1----1----1p0----0----0-----0----|
G|------0----------0-----------0-----------0----------0------|
D|-----------------------------------------------------------|
A|--3-3-----3------------------------------------------------|
E|-------------3-3-----3--3--3-----3--3--3-----3--3-3-----3--|

e|--------------------------------------------------------------------|
B|--0-----0----0-----0----0-----0----0-----0----1-----1----1-----1----|
G|------0----------0----------0----------0----------0----------0------|
D|--------------------------------------------------------------------|
A|----------------------------------------------3-3-----3--3-3-----3--|
E|--3-3-----3--3-3-----3--3-3-----3--3-3-----3------------------------|

e|----------------------------------------------|
B|--0-----0----0-----0----1-----1----1-----1----|
G|------0----------0----------0----------0------|
D|----------------------------------------------|
A|------------------------3-3-----3--3-3-----3--|
E|--3-3-----3--3-3-----3------------------------|

e|---------------------------------------------------------|
B|--0-----0---------------0-----0----0-----0----0-----0----|
G|------0------2-----2--------0----------0----------0------|
D|-----------------0---------------------------------------|
A|---------------------------------------------------------|
E|--3-3-----3--2-2-----2--0-0-----0--0-0-----0--0-0-----0--|

e|------------------------------------------------|
B|--1-----1----0-----0----0h1----1----1p0----0----|
G|------0----------0-----------0-----------0------|
D|------------------------------------------------|
A|--3-3-----3-------------------------------------|
E|-------------3-3-----3--3--3-----3--3--3-----3--|

e|----------------------------------------------|
B|----------------------------------------------|
G|--2-----2----0-----0----0-----0----0-----0----|
D|------0----------0----------0----------0------|
A|----------------------------------------------|
E|--2-2-----2--3-3-----3--3-3-----3--3-3-----3--|

e|-----------------------------------------------------------------|
B|------------------------1-----1----0-----0----0-----0--0-----0---|
G|--2-----2----0-----0--------0----------0----------0--------0-----|
D|------0----------0-----------------------------------------------|
A|------------------------3-3-----3--------------------------------|
E|--2-2-----2--3-3-----3-------------0-0-----0--0-0------0-0-----0-|

e|----------------------------------------------------------------------------|
B|-1-----1---0-----0----------------------------------------------------------|
G|-----0---------0------2-----2----0-----0----0-----0----0-----0----0-----0---|
D|-------------------------0----------0----------0----------0----------0------|
A|-3-3-----1------------------------------------------------------------------|
E|-----------3-3-----3--2-2-----2--3-3-----3--3-3-----3--3-3-----3--3-3-----3-|

e|-----------------------|
B|--------1--------------|
G|--0-----------0-----2--| x3
D|-----------------------|
A|--------3--------------|
E|--0-----------3-----2--|

e|----------------------------------------------------------------------------|
B|--1-----1----0-----0----1-----1----0-----0----0h1----1---0-----0------------|
G|------0----------0----------0----------0-----------0---------0----2-----2---|
D|-----------------------------------------------------------------------0----|
A|--3-3-----3-------------3-3-----3-------------------------------------------|
E|-------------0-0-----0-------------3-3-----3--3--3-----3-3-3----3-2-2-----2-|

e|----------------------------------------------------------------------------|
B|--1-----1----0-----0----1-----1----0-----0----0h1----1---0-----0--0-----0---|
G|------0----------0----------0----------0-----------0---------0--------0-----|
D|----------------------------------------------------------------------------|
A|--3-3-----3-------------3-3-----3-------------------------------------------|
E|-------------0-0-----0-------------3-3-----3--3--3-----3-3-3----3-3-3-----3-|

e|--------------------------------------------------------------------|
B|--0-----0----0-----0----0-----0----0-----0----1-----1----1-----1----|
G|------0----------0----------0----------0----------0----------0------|
D|--------------------------------------------------------------------|
A|----------------------------------------------3-3-----3--3-3-----3--|
E|--3-3-----3--3-3-----3--3-3-----3--3-3-----3------------------------|

e|----------------------------------------------|
B|--0-----0----0-----0----1-----1----1-----1----|
G|------0----------0----------0----------0------|
D|----------------------------------------------|
A|------------------------3-3-----3--3-3-----3--|
E|--3-3-----3--3-3-----3------------------------|

e|---------------------------------------------------------|
B|--0-----0---------------0-----0----0-----0----0-----0----|
G|------0------2-----2--------0----------0----------0------|
D|-----------------0---------------------------------------|
A|---------------------------------------------------------|
E|--3-3-----3--2-2-----2--0-0-----0--0-0-----0--0-0-----0--|

e|------------------------------------------------------------|
B|--1-----1----0-----0----0h1----1----0------0----0------0----|
G|------0----------0-----------0-----------0-----------0------|
D|------------------------------------------------------------|
A|--3-3-----3-------------------------------------------------|
E|-------------3-3-----3--3--3-----3--3--3-----3--3--3-----3--|

e|--------------------------------------------------------------------|
B|--0-----0----0-----0----0-----0----0-----0----1-----1----1-----1----|
G|------0----------0----------0----------0----------0----------0------|
D|--------------------------------------------------------------------|
A|----------------------------------------------3-3-----3--3-3-----3--|
E|--3-3-----3--3-3-----3--3-3-----3--3-3-----3------------------------|

e|----------------------------------------------|
B|--0-----0----0-----0----1-----1----1-----1----|
G|------0----------0----------0----------0------|
D|----------------------------------------------|
A|------------------------3-3-----3--3-3-----3--|
E|--3-3-----3--3-3-----3------------------------|

e|---------------------------------------------------------|
B|--0-----0---------------0-----0----0-----0----0-----0----|
G|------0------2-----2--------0----------0----------0------|
D|-----------------0---------------------------------------|
A|---------------------------------------------------------|
E|--3-3-----3--2-2-----2--0-0-----0--0-0-----0--0-0-----0--|

e|------------------------------------------------------------|
B|--1-----1----0-----0----0h1----1----0------0----0------0----|
G|------0----------0-----------0-----------0-----------0------|
D|------------------------------------------------------------|
A|--3-3-----3-------------------------------------------------|
E|-------------3-3-----3--3--3-----3--3--3-----3--3--3-----3--|

e|----------------------------------------------|
B|--0-----0----0-----0----1-----1----1-----1----|
G|------0----------0----------0----------0------|
D|----------------------------------------------|
A|------------------------3-3-----3--3-3-----3--|
E|--0-0-----0--0-0-----0------------------------|

e|----------------------------------------------|
B|--0-----0----0-----0--------------------------|
G|------0----------0------2-----2----2-----2----|
D|----------------------------0----------0------|
A|----------------------------------------------|
E|--3-3-----3--3-3-----3--2-2-----2--2-2-----2--|

e|----------------------------------------------|
B|--0-----0----0-----0----1-----1----1-----1----|
G|------0----------0----------0----------0------|
D|----------------------------------------------|
A|------------------------3-3-----3--3-3-----3--|
E|--0-0-----0--0-0-----0------------------------|

e|----------------------------------------------|
B|--0-----0----0-----0----3-----3----3-----3----|
G|------0----------0----------2----------2------|
D|----------------------------------------------|
A|----------------------------------------------|
E|--3-3-----3--3-3-----3--2-2-----2--2-2-----2--|

e|--0-----0----0-----0--------------------------|
B|------0----------0------1-----1----1-----1----|
G|----------------------------0----------0------|
D|----------------------------------------------|
A|------------------------3-3-----3--3-3-----3--|
E|--0-0-----0--0-0-----0------------------------|

e|---------------------------|
B|--0-----0----0-----0----3--|
G|------0----------0---------|
D|---------------------------|
A|---------------------------|
E|--3-3-----3--3-3-----3--2--|

        C          Em     C           G
Keep my eyes to serve and hands to learn
G/F#       C          Em     C           G
Keep my eyes to serve and hands to learn

G/F# G G/F# G C Em C G

G/F#    G    G/F#      G
Aaaaaaaaaahhhhhhhhhhh
C    Em     C   Em     G/F#    G
Aaaaaaaaaaaahhhhhhhhhhhhhhhhhh

Em      C       G       G/F#
Keep the earth below my feet
Em      C       G          G/F#
For all my sweat, my blood runs weak
Em      C       G          G/F#
Let me learn from where I have been

        C          Em     C           G
Keep my eyes to serve and hands to learn
G/F#       C          Em     C           G
Keep my eyes to serve and hands to learn

G/F#    G    G/F#      G
Aaaaaaaaaahhhhhhhhhhh
C    Em     C   G     G/F#    G
Aaaaaaaaaaaahhhhhhhhhhhhhhhhhh

G    G/F#      G
aaaaahhhhhhhhhhh
C    Em     C   G     G/F#    G
Aaaaaaaaaaaahhhhhhhhhhhhhhhhhh

I'm not sure but I think it's pretty accurate. This is a great song, I hope you enjoy it!


************************************

| h  Hammer-on
| p  Pull-off

************************************
Suggest correction
What's this?
You can suggest a correction to this tab. Community and Mods will review your correction and vote to approve or reject it.
comments
print report bad tab
5 comments total. Showing first comments.
0 reply
oli_caron 120 wrote on April 24 2013, 08:36 pm

I think the picking pattern should be the following:

e|-------------|
B|--8-----8----|
G|-----9-------|
D|-------------|
A|--7-7--7--7--|
E|-------------|

The rest is perfect! Well done!

0 reply
rico_ashraf 48 wrote on June 19 2013, 04:00 pm

Thank you so much, I'm playing the whole song perfectly now.

+1 reply
colinod07 266 wrote on October 11 2013, 06:46 pm

What you're calling D7 is actually called G/F#. Otherwise, great tab.

guest
You may want to rate the tab now too:
select rating
Please do not post tabs as comments. Select "correction" instead!