Oops, an error
Loading. Please wait.
We have Chord Pro version of Below My Feet.
It's the closest thing you can get to the original song and it has interactive parts. Check out the tab »
×

Below My Feet tab

version 3
version 3

Whole song

  • Incorporates the melody in the tab, so the guitar sings.

Interactive

1,193 views 15 this week
no commentswrite comment
1 2 3 4 5
3 more votes to show rating
add to favorites
×
Save as Personal and add changes to this tab that will be seen only by you. Learn more ›
×
You can save this tab as Personal to edit and correct it or add notes. All changes will be seen only by you. Learn more »
launch autoscroll
font size
0
reset
how to read this tab
guitar tuner
edit
Autoscroll
slow
fast
+/-
esc
set tempo
stop
About this tab version
Incorporates the melody in the tab, so the guitar sings. Was this info helpful? Yes No
-------------------------------------------------------------------------------
                    Below My Feet - Mumford and Sons
-------------------------------------------------------------------------------
Tabbed by: emily_merkel

This is not a regular intrumental version. This incorporates the melody.
Capo 4

Intro:
e|-------------------------|-------------------------|-----------------------------|
B|-5---5-5---5-8---8-8---8-|-5---5-5---5-0---0-0---0-|-5-----5-5-3-0-----0-0-----0-|
G|-------------------------|-------------------------|-----0-----------0-------0---|
D|-------------------------|-------------------------|-----------------------------|
A|-7--7--7--7--7--7--7--7--|-7--7--7--7--7--7--7--7--|-7-7-----7-5-5-5-----5-5-----|
E|-------------------------|-------------------------|-----------------------------|

e|---------------------------------|---------------------------------| ---------|
B|-----------------0-----0---------|---------------------------------| ---------|
G|-3-----3-3-----3-----0---3-----3-|-0-----0-0-----0-0-----0-3-----3-| -0-----0-|x3
D|-----0-------0---------------0---|----0-------0-------0-------0----| -----0---|
A|-5-5-----5-5-----5-5-----5-5-----|-5-5-----5-5-----5-5-----5-5-----| -5-5-----|
E|---------------------------------|---------------------------------| ---------|

e|--------------------------------------------------------------------------|
B|--------------------------------------------------------------------------|
G|-3-----3-0-----0-0------0-0-----0-2-----2-0-----0-0-----0-0-----0-0-----0-|
D|-----0-------0-------0-------0--------0-------0-------0-------0-------0---|
A|-5-5----------------------------------------------------------------------|
E|---------3-3-----3-3------3-3-----3-3-----3-3-----3-3-----3-3-----3-3-----|

Verse 1:
   G                         C         G             C         G           Em           C         G
e|-------------------------|-0---0-0---------------|-0---2-0-------------| -------|    -------|  -------|
B|-3---3-3---3-3---3-3---3-|----1----3-0---0-0---0-|----1----3-0---0-1-0-| -------|    -------|  -------|
G|----0-----0-----0-----0--|--------------0-----0--|--------------0------| -2---2-|x3  -0---0-|  -0---0-|x4
D|-------------------------|-----------------------|---------------------| -------|    ----2--|  ----0--|
A|-------------------------|-3-3---3-3-------------|-3-3---3-3-----------| ----0--|    -3-3---|  -------|
E|-3-3---3-3---3-3---3-3---|-----------3-3---3-3---|-----------3-3---3-3-| -2-2---|    -------|  -3-3---|

Verse 2:
   G                         C         G             C         G           Em           C         G
e|-------3-----3-----3-----|-0---0-0---------------|-0---2-0-------------| -------|    -------|  -------|
B|-3---3-----3-----3-----3-|----1----3-0---0-0---0-|----1----3-0---0-1-0-| -------|    -------|  -------|
G|----0-----0-----0-----0--|--------------0-----0--|--------------0------| -2---2-|x3  -0---0-|  -0---0-|x3
D|-------------------------|-----------------------|---------------------| -------|    ----2--|  ----0--|
A|-------------------------|-3-3---3-3-------------|-3-3---3-3-----------| ----0--|    -3-3---|  -------|
E|-3-3---3-3---3-3---3-3---|-----------3-3---3-3---|-----------3-3---3-3-| -2-2---|    -------|  -3-3---|

Interlude: hm hmmm hm hmmm...
   D     G                  D     G     C    Em                   C    Em     D        G
e|------------------------|-------------------------------------|-------------------| -------|
B|------------------------|-------------1---1-0---0-0---0-0---0-|-1---1-0---0-------| -------|
G|-------0---0-0--0-0---0-|-------0---0----0-----0-----0-----0--|----0-----0--2---2-| -0---0-|x4
D|-4---4----0----0----0---|-4---4----0--------------------------|----------------0--| ----0--|
A|----0-------------------|----0--------------------------------|-------------------| -------|
E|-3-3---3-3---3----3-----|-3-3---3-3---3-3---3-3---3-3---3-3---|-3-3---3-3---3-3---| -3-3---|

Chorus:
  Em        C   G           D  Em         C   G           D   Em        C       G            D   Keep my...
e|-0-0------x---x-------------|-----0-----x---x-------------|-----0-------------x---------------| -----|
B|-0---h3-3-3-1-0-h1-h3-------|------h3-3-3-1-0-h1-h3-------|-----0h3-3-33-3311-0-h1-h3-3-------| -----|
G|-0--------0---0-------0h2-2-|-0-0-------0---0-------0h2-2-|-----0-----00-0000-0-------0-0h2-2-| -0-2-|
D|-2--------2---0-----------0-|-2---------2---0-----------0-|-222-2-----22-2222-0-------0-----0-| -----|
A|-2--------3---2-----------0-|-2---------3---2-----------0-|-222-2-----33-3333-2-------2-----0-| -----|
E|-0--------0---3-------------|-0---------0---3-------------|-000-0-------------3-------3-------| -----|

Start Strumming with a quick DD UDUD DD for the rest of the song:
        C       Em       C        G
Keep my eyes to serve my hands to learn
        C       Em       C        G
Keep my eyes to serve my hands to learn

*If you can, try to strum while incorporating the melody given in Verses 1&2.

Verse 3:  
          G              C         G
And I was still / I was under your spell
     C             G             Em        C           G 
When I was told by Jesus all was well / So all must be well

Verse 4:
             G                  C                G
Just give me time / You know that your desires are mine
   C                G           Em         C         G   
So wrap my flesh in ivy and in twine / For I must be well

Chorus: 

e|-------------------------------------------------|    The third time through play the first --- ONCE  
B|-5---5-5---5-3---3-3---3-0---0-0---0-------------|                                          ---
G|-------------------------------------3---3-3---3-|x3                                        -3- 
D|-------------5-5---5-5---------------------------|                                          ---
A|-7-7---7-7---------------5-5---5-5---5-5--5--5-5-|                                          -5-
E|-------------------------------------------------|                                          ---  

Begin Strumming the DD UDUD DD pattern:
           C       Em        C        G      
Oh keep my eyes to serve, my hands to learn x2

Interlude:
D G   D G C Em   C Em 
Ah ahh
D  G    D G C Em    C Em D G

Strum: (DDD DU D) (DDD DU D)
Em       C       G      D      Em         C         G          D    
Keep the earth below my feet / For all my sweat, my blood runs weak
Em      C               G      D (strum once)
Let me learn from where I have been

Strum: DD UDUD DD
        C       Em        C       G
Keep my eyes to serve my hands to learn x2

Interlude:
D G   D G C Em   C Em 
Ah ahh
D  G    D G C Em    C Em D G


************************************
| h   hammer-on
************************************

            
            
Suggest correction
Creating personal tab
Creating personal tab
You can edit any tab online and save it as your Personal.

You can edit, replace or remove any tab part or add personal notes – all changes will be seen only by you.

Personal tabs can be accessed anytime from any device, even offline.
Learn more »
Give kudos to tab author, rate the tab!
1 2 3 4 5
comments
print report bad tab
guest
You may want to rate the tab now too:
select rating
Wanna post a correction for this tab? Suggest correction