Oops, an error
Loading. Please wait.

Broken Crown Tab

version 4
version 4

Whole song

Interactive

4,147 views 9 this week
no commentswrite comment
1 2 3 4 5
x 3
add to favorites
launch autoscroll
font size
0
reset
how to read this tab
guitar tuner
×
Best way to learn
"Broken Crown"
Autoscroll
slow
fast
+/-
esc
set tempo
stop
Difficulty
intermediate
Tuning: Standard

[Intro]
    Dm                              C
e|--1----1--3----3--5----5--5----5--0----0--1----1--3----3--3----3----------|
B|-----3-------3-------3-------3-------1-------1-------1-------1------------|
G|--------------------------------------------------------------------------|
D|--0-0-0---0-0-0---0-0-0---0-0-0-------------------------------------------|
A|----------------------------------3-3-3---3-3-3---3-3-3---3-3-3-----------|
E|--------------------------------------------------------------------------|

    Bb             Am                          Dm
e|---------------------------------------------1----1--1----1---------------|
B|--3----3-6-5-3-1-1h3---3--1----1-0--2--3—0-----3-------3------------------|
G|-----3---------------2-------2--------------------------------------------|
D|---------------------------------------------0-0-0---0-0-0----------------|
A|--1-1-1----------0--0-0---0-0-0-------------------------------------------|
E|---------------------------------0--1--3-0--------------------------------|

[Verse 1]
    Dm       C                Dm
e|--1-----1--0-----0-----------1-----1------------------------------------------|
B|------3--------1--------—-------3---------------------------------------------|
G|---------------------2----0---------------------------------------------------|
D|--0—-0--0--------------------0—-0--0------------------------------------------|(x2)
A|-----------3—-3--3------------------------------------------------------------|
E|---------------------0----0---------------------------------------------------|
   Touch my mouth and hold my tongue
   I will not be Your chosen one

    Bb                            Dm
e|----------------------------------1----1--1----1--1----1--1----1----------|
B|--3----3--3----3--3----3--3---—3-----3-------3-------3-------3------------|
G|-----3-------3-------3-------3--------------------------------------------|
D|----—------------------------—----0-0-0---0-0-0---0-0-0---0-0-0-----------|(x2)
A|--1-1-1—--1-1-1---1-1-1---1-1-1-------------------------------------------|
E|--------------------------------------------------------------------------|
   I'll be home safely tucked away
   You can't tempt me if...the day

    Dm       C
e|--1-----1--0-----0-----------1-----1------------------------------------------|
B|------3--------1--------—--------3--------------------------------------------|
G|---------------------2----0---------------------------------------------------|
D|--0—-0--0--------------------0—-0--0------------------------------------------|(x2)
A|-----------3—-3--3------------------------------------------------------------|
E|---------------------0----0---------------------------------------------------|
   The pull on my flesh was just too strong
   It stifled the choice and the air in my lungs

 Bb                               Dm
e|----------------------------------1----1--1----1--1----1--1----1----------|
B|--3----3--3----3--3----3--3---—3-----3-------3-------3-------3------------|
G|-----3-------3-------3-------3--------------------------------------------|
D|----—------------------------—----0-0-0---0-0-0---0-0-0---0-0-0-----------|(x2)
A|--1-1-1—--1-1-1---1-1-1---1-1-1-------------------------------------------|
E|--------------------------------------------------------------------------|
   Better not to breathe than to breathe a lie
   Cause when I open my body I breathe alive

[Instrumental]
    Dm                              C
e|--1----1--3----3--5----5--5----5--0----0--1----1--3----3--3----3----------|
B|-----3-------3-------3-------3-------1-------1-------1-------1------------|
G|--------------------------------------------------------------------------|
D|--0-0-0---0-0-0---0-0-0---0-0-0-------------------------------------------|
A|----------------------------------3-3-3---3-3-3---3-3-3---3-3-3-----------|
E|--------------------------------------------------------------------------|

    Bb             Am                          Dm
e|---------------------------------------------1----1--1----1---------------|
B|--3----3-6-5-3-1-1h3---3--1----1-0--2--3—0-----3-------3------------------|
G|-----3---------------2-------2--------------------------------------------|
D|---------------------------------------------0-0-0---0-0-0----------------|
A|--1-1-1----------0--0-0---0-0-0-------------------------------------------|
E|---------------------------------0--1--3-0--------------------------------|

[Verse]
           Bb    Dm C Dm  C    Dm
I will not speak ooooooof your sin
           Bb  Dm C Dm  C   Dm
There was a way oooooout for him
           Bb Dm C Dm C  Dm
The mirror shooooooooows not
           Bb Dm C Dm  C  Dm
Your values areeeeeeee all shot

[Bridge]
    C   Dm C     Dm  C      F Dm      C  Bb
But oh, my heart was flawed I knew my weakness
   C    Dm C    Dm  C   F  Dm  C  Bb
So hold my hand consign me not to darkness.

    Dm          C         Bb         Am
e|--1---3---5---0---1---3---1-------------------------------------|
B|--3---3---3---1---1---1---3-6-5-3-1-1-2--3--0--2----------------|
G|--2---2---2---------------3---------2---------------------------|
D|--0---0---0---2---2---2---3---------2---------------------------|
A|--------------3---3---3---1-------------------------------------|
E|--------------------------------------0--1--3--0----------------|

[Verse 2] (Strum)
Dm          C              F   A11  Dm
Crawl on my belly till the sun goes down
Dm         C         F   All Dm
I'll never wear your bro-ken crown
       Bb                               Dm             (x2)
I took the road and I fucked it all away.
    Bb                                     Dm
Now in this twilight how dare you speak of grace.

[Instrumental]
Bb C Dm F C (2x)
Bb C Dm C
Bb C Dm F C Dm

[Outro]
    Dm       C                Dm
e|--1-----1--0-----0-----------1-----1--------------------------------------|
B|------3--------1--------—--------3----------------------------------------|
G|---------------------2----0-----------------------------------------------|
D|--0—-0--0--------------------0—-0--0--------------------------------------|(x2)
A|-----------3—-3--3--------------------------------------------------------|
E|---------------------0----0-----------------------------------------------|
   So, crawl on my belly until the sun goes down
   I’ll never wear your broken crown

    Bb                            Dm
e|----------------------------------1----1--1----1--1----1--1----1----------|
B|--3----3--3----3--3----3--3---—3-----3-------3-------3-------3------------|
G|-----3-------3-------3-------3--------------------------------------------|
D|----—------------------------—----0-0-0---0-0-0---0-0-0---0-0-0-----------|(x2)
A|--1-1-1—--1-1-1---1-1-1---1-1-1-------------------------------------------|
E|--------------------------------------------------------------------------|
   I can take the road and I can fuck it all away.
   But in this twilight our choices seal our fate


************************************

| h  Hammer-on

************************************
Suggest correction
Give kudos to tab author, rate the tab!
1 2 3 4 5
comments
print report bad tab
guest
You may want to rate the tab now too:
select rating
Wanna post a correction for this tab? Suggest correction