Oops, an error
Loading. Please wait.

Ditmas tab

version 1
version 1

Whole song

Video

14,345 views 69 this week
no commentswrite comment
1 2 3 4 5
x 9
add to favorites
×
Save as Personal and add changes to this tab that will be seen only by you. Learn more ›
×
You can save this tab as Personal to edit and correct it or add notes. All changes will be seen only by you. Learn more »
launch autoscroll
font size
0
reset
how to read this tab
guitar tuner
edit
Autoscroll
slow
fast
+/-
esc
set tempo
stop
-------------------------------------------------------------------------------
                             Ditmas - Mumford & Sons
-------------------------------------------------------------------------------
Tabbed by: Mafi Simmonds-Sharkey
E-mail: mafi.sharkey1@btinternet.com

Tuning: CACGCE

Tuning is as it is for Little Lion Man, the live version of I Will Wait, Sigh No More, 
Awake My Soul and
Sister.

This is Winston's part tabbed out, pretty much 99% accurate I'd say. He may have a 
slightly different
picking pattern but this is either dead on or damn close and giving off pretty much the 
exact same
sound haha! Just play about and choose what you think sounds best.

Its hard to line up the lyrics with the tab for the timing, but I've
tried my best. Use this video as a reference if need be for timing:

https://www.youtube.com/watch?v=bz8uz9dkvNk

Chords used;

    CACGCe         CACGCe         CACGCe           CACGCe        CACGCe         CACGCe
Am: x00200      F: 505500      C: 030000      G/B: x20000     G: 7x7700      A: 9x9900


[Verse 1]
                                                                        (Walk down)
       Am                       F          C         F                   C       G/B     Am
And in time, as one reminds the other of a past.   A life lived much too fast to hold on to.

e|-----------------------------------------------------------------------------------------------|
C|-----------------------------------------------------------------------------------------------|
G|--------2-----2-----2----2------5----5-----0---0------5----5---------------0------0--------2---|
C-------0-----0-----0----0------5----5-----0---0------5----5---------------0------0--------0-----|
A|-----0-0---0-0---0-0--0-0----0----0-----3---3------0----0---------------3-3----2-2------0-0----|
C|-------------------------------5----5-----0---0------5----5------------------------------------|

                F      C
       How am I losing you?

e|--------------------------------------------------------------------------------------------|
C|--------------------------------------------------------------------------------------------|
G|-----2-----2-----5------0-----0-----0-----0-------------------------------------------------|
C|---0-----0-----5------0-----0-----0-----0---------------------------------------------------|
A|--0-0---0-0---0------3-----3-----3-----3----------------------------------------------------|
C|----------------5------0-----0-----0-----0--------------------------------------------------|

                                                                           (Walk down)
         Am                       F               C       F                C       G/B   Am
A broken house, another dry month waiting for the rain.   And I have been resisting this decay.

e|----------------------------------------------------------------------------------------------|
C|----------------------------------------------------------------------------------------------|
G|----------2-----2-----2----2------5----5----------0---0----5----5----------0-------0------2---|
C---------0-----0-----0----0------5----5----------0---0----5----5----------0-------0------0-----|
A|-------0-0---0-0---0-0--0-0----0----0----------3---3----0----0----------3-3-----2-2----0-0----|
C|---------------------------------5----5----------0---0----5----5------------------------------|

                       F      C
       I thought you'd do the same.

e|------------------------------------------------------------------------------------|
C|------------------------------------------------------------------------------------|
G|-----2-----2-----------5------0-----0-----0-----0-----------------------------------|
C|---0-----0-----------5------0-----0-----0-----0-------------------------------------|
A|--0-0---0-0---------0------3-----3-----3-----3--------------------------------------|
C|----------------------5------0-----0-----0-----0------------------------------------|


[Chorus 1]

(Strummed using chords at top of page, strum pattern isn't hard to figure out):

                  F    C                         F    C      G           C
But this is all I ever was...and this is all you came across those years ago.
        F      C                              F    C       G              C
Now you go too far... don't tell me that I changed because that's not the truth.
    F      C       G
And now I'm losing you...


[Verse 2]
                                                                               
       Am                            F               C      F                C   
Fragile sounds, the world outside just watches as we crawl. Crawl towards a life of

e|------------------------------------------------------------------------------------|
C|------------------------------------------------------------------------------------|
G|-------2-----2-----2----2-----------5----5----------0---0----5----5----------0------|
C|-----0-----0-----0----0-----------5----5----------0---0----5----5----------0--------|
A|----0-0---0-0---0-0--0-0---------0----0----------3---3----0----0----------3-3-------|
C|-----------------------------------5----5----------0---0----5----5------------------|

    G/B     Am               F      C
    fragile lines...     and wasted time.

e|----------------------------------------------------------|
C|----------------------------------------------------------|
G|-----0------2----2----2-------5-------0----0----0----0----|
C|---0------0----0----0-------5-------0----0----0----0------|
A|--2-2----0-0--0-0--0-0-----0-------3----3----3----3-------|
C|-----------------------------5-------0----0----0----0-----|
                 
        Am                            F            C             F                C   
And so I cry, as I hold you for the last time in this life. This life I tried so hard

e|------------------------------------------------------------------------------------|
C|------------------------------------------------------------------------------------|
G|-------2-----2-----2----2-----------5----5----------0---0-------5----5----------0---|
C|-----0-----0-----0----0-----------5----5----------0---0-------5----5----------0-----|
A|----0-0---0-0---0-0--0-0---------0----0----------3---3-------0----0----------3-3----|
C|-----------------------------------5----5----------0---0-------5----5---------------|

    G/B     Am                   F      C
 to give to you...what would you have me do.

e|-------------------------------------------------------------|
C|-------------------------------------------------------------|
G|-----0------2----2----2----------5-------0----0----0----0----|
C|---0------0----0----0----------5-------0----0----0----0------|
A|--2-2----0-0--0-0--0-0--------0-------3----3----3----3-------|
C|--------------------------------5-------0----0----0----0-----|
                                                      
   
[Chorus 2] (Strummed):

                  F    C                         F    C      G           C
But this is all I ever was...and this is all you came across those years ago.
        F      C                              F    C       G              C
Now you go too far... don't tell me that I changed because that's not the truth.
    F      C       G
And now I'm losing you...


[Bridge] (Again strummed using chords at top):

                A       F         C          A        F    C
Where I used to end was where you start, you were the only one.
                   A     F        C
And now I see your eyes, move too fast.
    A        F    C
You were the only one.


[Verse 3]

(Single, gentle strums)
        Am                         F                C       F               C      G/B
Careful hands, and wandering without that much to say. Your words are empty as the bed we
       Am                    F       C
    made.           Is there another way?

e|-------------------------------------------------------------------------------------|
C|-------------------------------------------------------------------------------------|
G|--------2-----2-----2----------5------0-----0-----0-----0----------------------------|
C|------0-----0-----0----------5------0-----0-----0-----0------------------------------|
A|-----0-0---0-0---0-0--------0------3-----3-----3-----3-------------------------------|
C|------------------------------5------0-----0-----0-----0-----------------------------|

   Am                      F       C
Oh love,          is there another way?

e|-------------------------------------------------------------------------------------------------|
C|-------------------------------------------------------------------------------------------------|
G|-----2-----2-----2----------5------0-----0-----0-----0-----0-----0-----0-----0-------------------|
C|---0-----0-----0----------5------0-----0-----0-----0-----0-----0-----0-----0---------------------|
A|--0-0---0-0---0-0--------0------3-----3-----3-----3-----3-----3-----3-----3----------------------|
C|---------------------------5------0-----0-----0-----0-----0-----0-----0-----0--------------------|


[Chorus 3] (All out strumming!):

                  F    C                         F    C      G           C
But this is all I ever was...and this is all you came across those years ago.
        F      C                              F    C       G              C
Now you go too far... don't tell me that I changed because that's not the truth.
    F      C       G        F       C      G
And now I'm losing you! And now I'm losing you!


[Outro] (Still all out strumming!):

A (4 beats).... F (2 beats).. C (8 beats) ........ (x4)

On the fourth and final repetition, end with a single strum of the C instead of holding 
for 8 beats.

Just listen and you'll know where the chord changes come in! :)


Hope this helps, enjoy! :)


************************************

| /   slide up
| \   slide down
| h   hammer-on
| p   pull-off
| ~   vibrato
| +   harmonic
| x   Mute note
| b   Bend
| pb  Pre-bend
| br  Bend release
| pbr Pre-bend release
| brb Bend release bend

************************************

            
            
Suggest correction
Creating personal tab
Creating personal tab
You can edit any tab online and save it as your Personal.

You can edit, replace or remove any tab part or add personal notes – all changes will be seen only by you.

Personal tabs can be accessed anytime from any device, even offline.
Learn more »
comments
print report bad tab
guest
You may want to rate the tab now too:
select rating
Wanna post a correction for this tab? Suggest correction