Oops, an error
Loading. Please wait.

Dust Bowl Dance Bass Tab

version 1
version 1

Solo

Interactive

6,114 views 1 this week
2 commentsread comments
1 2 3 4 5
please rate
add to favorites
launch autoscroll
font size
0
reset
guitar tuner
Autoscroll
slow
fast
+/-
esc
set tempo
stop
Help us to improve Ultimate-Guitar.com Take our survey!
×
Author
Difficulty
Tuning
Capo
novice
D G D G B D
8th fret
This is the only banjo section from the Mumford and Sons song "Dust Bowl Dance". I 
couldn't find an accurate transcription anywhere, so I figured I would post it online.

I can't guarantee 100% accuracy, but darn it, I tried my best.

Tune your Banjo to "Open G" with a Capo on the 8th fret.


D||---------8---------8---------8---------8---------10---------10--|
B||------8---------8---------8---------8---------8----------8------|
G||--10--------10--------10--------10--------10---------10---------|
D||----------------------------------------------------------------|
G||----------------------------------------------------------------|



----------------------------------------------------|
-----------------9--11-----9--11-----8--------------|
--8-----------8---------8---------8--------------8--|
-------8--10------------------------------8--10-----|
----------------------------------------------------|



------------------------------------------|
--9--11-----9--11--------11--------11-----|
---------8---------8--8------8--8------8--|
------------------------------------------|
------------------------------------------|



-------8---------8---------8---------8---------10---------10--|
--8-----------8---------8---------8---------8----------8------|
----------10--------10--------10--------10---------10---------|
--------------------------------------------------------------|
--------------------------------------------------------------|



----------------------------------------------------|
-----------------9--11-----9--11-----8--------------|
--8-----------8---------8---------8--------------8--|
-------8--10------------------------------8--10-----|
----------------------------------------------------|



------------------------------------------||
--9--11-----9--11--------11--------11-----||
---------8---------8--8------8--8------8--||
------------------------------------------||
------------------------------------------||
Suggest correction
Give kudos to tab author, rate the tab!
1 2 3 4 5
comments
print report bad tab
2 comments total.
+1 reply
LithiumEnergy 73 wrote on May 26 2013, 06:13 am

Not a bass tab. Thoroughly disappointed.

0 reply
Joeperttt 31 wrote on July 13 2013, 08:09 am

There's a better Banjo tab out there at Happybanjodude's site.

guest
You may want to rate the tab now too:
select rating
Wanna post a correction for this tab? Suggest correction