Oops, an error
Loading. Please wait.

Dust Bowl Dance Tab

version 1
version 1

Solo

Interactive

160 views 12 this week
no commentswrite comment
1 2 3 4 5
2 more votes to show rating
add to favorites
launch autoscroll
font size
0
reset
how to read this tab
guitar tuner
Autoscroll
slow
fast
+/-
esc
set tempo
stop
Help us to improve Ultimate-Guitar.com Take our survey!
×
Author
Difficulty
Capo
novice
1st fret
Guitar Solo after the banjo has finished
To face what I've done, and do my time!


[1:44]

e|---7----7-5-7----------------------------0--------0--7--7--7--7--7p5------|
B|-7-7----------3--3\--0-0--3-3-5p3p0----0---2------2--7---------------7~~~~|
G|---------------------------------------------2----2--2--------------------|
D|---------------------------------------------------------------------------|
A|---------------------------------------------------------------------------|
E|---------------------------------------------------------------------------|

e|---------------------------------------------------------------------------|
B|--0-3-5p3p0----0-3p0-------------------------------------------------------|
G|---------------------2~~~--------------------------------------------------|
D|---------------------------------------------------------------------------|
A|---------------------------------------------------------------------------|
E|---------------------------------------------------------------------------|


************************************

| h  Hammer-on
| p  Pull-off
| \  Slide down
| ~  Vibrato

************************************
Suggest correction
Give kudos to tab author, rate the tab!
1 2 3 4 5
comments
print report bad tab
guest
You may want to rate the tab now too:
select rating
Wanna post a correction for this tab? Suggest correction