Oops, an error
Loading. Please wait.

Ghost That We Knew tab

33,535 views 15 this week
2 commentsread comments
1 2 3 4 5
x 14
add to favorites
×
Save as Personal and add changes to this tab that will be seen only by you. Learn more ›
×
You can save this tab as Personal to edit and correct it or add notes. All changes will be seen only by you. Learn more »
launch autoscroll
font size
0
reset
how to read this tab
guitar tuner
edit
Autoscroll
slow
fast
+/-
esc
set tempo
stop
Author
Difficulty
Unregistered
intermediate
[Basic Finger-picking for entire song] 
(unless tab says otherwise.)
E|--------------|
B|--------------|
G|-----------0--|
D|-----0--------|
A|--------------|
E|--0-----0-----|

[Intro]
E|-----|-----|------|------|-----|-----|
B|-----|-----|------|------|-----|-----|
G|--4--|--7--|--12--|--11--|--9--|--4--|
D|--0--|--0--|--0---|--0---|--0--|--0--|
A|-----|-----|------|------|-----|-----|
E|--3--|--7--|--12--|--10--|--8--|--3--|

[Intro]
E|-----|-----|------|------|-----|-----|
B|-----|-----|------|------|-----|-----|
G|--4--|--7--|--12--|--11--|--9--|--4--|
D|--0--|--0--|--0---|--0---|--0--|--0--|
A|-----|-----|------|------|-----|-----|
E|--3--|--7--|--12--|--10--|--8--|--3--|

[Pre-chorus]
E|-----|-----|-----|-----|-----|-----|-----|
B|-----|-----|-----|-----|-----|-----|-----|
G|--2--|--0--|--2--|--0--|--0--|--2--|--0--|
D|--1--|--2--|--1--|--2--|--0--|--0--|--0--|
A|-----|-----|-----|-----|-----|-----|-----|
E|--0--|--0--|--0--|--0--|--3--|--2--|--3--|

[Chorus] 
(pluck strings)
E|-----|-----|-----|-----|-----|-----|-----|
B|--1--|-----|-----|-----|--1--|-----|-----|
G|--0--|--0--|--2--|--0--|--0--|--0--|--2--|
D|-----|--0--|--0--|--0--|-----|--0--|--0--|
A|--3--|-----|-----|-----|--3--|-----|-----|
E|-----|--3--|--2--|--3--|-----|--3--|--2--|

So give me hope in the darkness that I will see the light
Cause oh that gave me such a fright

E|-----|-----|-----|-----|-----|-----|
B|-----|-----|--1--|-----|--1--|-----|
G|--0--|--2--|--2--|--0--|--2--|--2--|
D|--2--|--0--|-----|--0--|-----|--0--|
A|--2--|-----|--3--|-----|--3--|-----|
E|-----|--2--|-----|--3--|-----|--2--|

But I will hold as long as you like
Just promise me we'll be alright

[Interlude]
E|-----|-----|-----|-----|
B|-----|-----|-----|-----|
G|--0--|--0--|--0--|--2--|
D|--2--|--0--|--2--|--0--|
A|-----|-----|-----|-----|
E|--0--|--3--|--0--|--2--|

[Chorus] 
(pick strings)
E|-----|-----|-----|-----|-----|-----|-----|
B|--1--|--0--|--0--|--0--|--1--|--0--|-----|
G|--0--|--0--|--2--|--0--|--0--|--0--|--2--|
D|-----|-----|-----|-----|-----|-----|--0--|
A|--3--|-----|-----|-----|--3--|-----|-----|
E|-----|--3--|--2--|--3--|-----|--3--|--2--|

E|-----|-----|-----|-----|-----|-----|
B|-----|-----|--1--|--0--|--1--|-----|
G|--0--|--2--|--2--|--0--|--2--|--2--|
D|--2--|--0--|-----|-----|-----|--0--|
A|--2--|-----|--3--|-----|--3--|-----|
E|-----|--2--|-----|--3--|-----|--2--|

[Pre-Bridge] (x2) 
(strumming through the rest of the song)
   Em     C     G
E|--0--|--0--|--3--|
B|--0--|--1--|--0--|
G|--0--|--2--|--0--|
D|--2--|--0--|--0--|
A|--2--|--3--|--2--|
E|--0--|--0--|--3--|

[Bridge] (x2
   Em     C     G
E|--0--|--0--|--3--|
B|--0--|--1--|--0--|
G|--0--|--2--|--0--|
D|--2--|--0--|--0--|
A|--2--|--3--|--2--|
E|--0--|--0--|--3--|

Em                   C                       G
   But hold me still bury my heart on the cold
   And hold me still bury my heart on the cold

[Chorus]
    C     G     D
E|--0--|--3--|--0--|
B|--1--|--0--|--0--|
G|--0--|--0--|--2--|
D|--2--|--0--|--0--|
A|--3--|--2--|--0--|
E|--0--|--3--|--2--|

G                  C           G               D            G
        So give me hope in the darkness that I will see the light
              C       G              D          
        Cause oh that gave me such a fright

   Em     D     C     G
E|--0--|--0--|--0--|--3--|
B|--0--|--0--|--1--|--0--|
G|--0--|--2--|--2--|--0--|
D|--2--|--0--|--0--|--0--|
A|--2--|--0--|--3--|--2--|
E|--0--|--2--|--0--|--3--|

    Em     D          C           G
But I will hold on as long as you like
     C          D              G
Just promise me we'll be alright

[Post-chorus] 
(pluck strings)
E|-----|-----|-----|-----|-----|-----|-----|
B|-----|-----|-----|-----|-----|-----|-----|
G|--2--|-----|--2--|-----|-----|--2--|-----|
D|--1--|--2--|--1--|--2--|-----|-----|-----|
A|--2--|--2--|--2--|--2--|-----|-----|-----|
E|-----|-----|-----|-----|--3--|--2--|--3--|

But the ghosts that we knew will flicker from you
And we'll live a long life

            
            
Suggest correction
Creating personal tab
Creating personal tab
You can edit any tab online and save it as your Personal.

You can edit, replace or remove any tab part or add personal notes – all changes will be seen only by you.

Personal tabs can be accessed anytime from any device, even offline.
Learn more »
comments
print report bad tab
2 comments total.
0 reply
DermotOC_11 72 Dec 23, 2012 02:23 PM

Amazing song to play on guitar. Spot on perfect thank you very much!

0 reply
luke_guitar 10 Apr 24, 2014 10:58 AM

No clue why this tab doesn't have 5 stars it's completely accurate

guest
Wanna post a correction for this tab? Suggest correction