Oops, an error
Loading. Please wait.

Ghosts That We Knew Bass Tab

version 1
version 1

Whole song

3,015 views 6 this week
no commentswrite comment
1 2 3 4 5
x 3
add to favorites
launch autoscroll
font size
0
reset
guitar tuner
Autoscroll
slow
fast
+/-
esc
set tempo
stop
Help us to improve Ultimate-Guitar.com Take our survey!
×
Author
Difficulty
intermediate
Mumford And Sons - Ghosts That We Knew

- If there are any mistakes I might have made transcribing, please let me know!
- Tab format doesn't lend itself easily for the timing of played notes,
  so please check the song to get it as correct as possible
- This song is played on a double bass, so to get a more accurate sound try
implementing some slides into the song,
  which I've tried to tab out by using the '/' symbol and the '2s3' notation.
- Have fun playing!





G|-----------------------|
D|---------------5--3----|
A|--3--7---------------3-|
E|--------5--------------|  [0:39] (Play twice)

G|------------------------------|
D|--6-----6--7------------------|
A|---------------3-----3------3-|
E|-----5------------3-----------|  [1:04]

G|----------------------------------------------------------------------|
D|--------3-----3--5------/7-----2s3----------------/7-----7--7--5------|
A|--0--2-----3----------------------------------------------------------|
E|--------------------5-------------------1-----5---------------------3-|  [1:32]

G|--------------------------------------------------------|
D|--------------5--3-------------------7--5--3------------|
A|--3--7--------------3-----3--7----------------3---------|
E|--------5------------------------5--------------- [2:03-|

G|-----------------------------------------------------------------------|
D|--------------5--3-------------------7--5--3---------------------------|
A|--3--7--------------3-----3--7----------------3-----3-----3--3---------|
E|--------5------------------------5------------------------------ [2:27-|

G|------------------------------------------------|
D|--3-----------3--------5------------------------|
A|-----3-----3-----3-------------------8-----8----|
E|--------3-----------3----3-----5--7-----8-----3-| [2:52]

G|---------------------------------------------------------|
D|-----------7-----7--5--3---------------------------------|
A|------------------------------------------3---3---3---3--|
E|--5------5----5--------------1-----1--3------------------|  [3:13]

The next part is a build-up to the walking bassline that starts at 3:49;
listen to the song closely to get the timing right.

G|----------------------------------------------------------------|
D|----------------------7--3--------------------------------------|
A|-----------7---------------------3-------------3---3---3---3-3--|
E|--5-----5-----5----5----------1-----1----1--3-------------------| [3:31]

G|-----------------------------------------------------------------------------|
D|--------7--------------7--3-----3--------------------------------------------|
A|-----7-----7-----7-----------------0h3--------------3--3--3--3--3--3--3--3---|
E|--5-----------5-----5--------1----------1--1--1--3---------------------------|
[3:49] (0h3 is a very fast hammer-on)

G|----------------------------------------------------------------------------------|
D|--------------------------3--2--0----------------------------------------2--------|
A|-----7-----------------3-----------3-----------2--3--3--3--3--3--3--3--3----------|
E|--5-----8--7--5--3--5-----------------1--3--5------------------------------ [4:08-|

G|-----------------------------------------------------------------------------------------------|
D|--3--3--------------------3-----------------5-----------------3--3--------3--3--5--5-----------|
A|--------3--3-----2--3--3--------3--3--------------------2--2--------3--3-----------------------|
E|--------------3--------------1--------3--3-----3--5--5--------------------------------  [4:26--|

G|----------------------------------------------------------|
D|----------------------------------------------------------|
A|--3--3--3--3--3--3--3--3--3--3--3--3--3--3--3--3----------|
E|--------------------------------------------------  [4:47-|
Suggest correction
Give kudos to tab author, rate the tab!
1 2 3 4 5
comments
print report bad tab
guest
You may want to rate the tab now too:
select rating
Wanna post a correction for this tab? Suggest correction