Oops, an error
Loading. Please wait.

Ghosts That We Knew tab

version 4
version 4

Whole song

1,459 views 12 this week
no commentswrite comment
1 2 3 4 5
x 3
add to favorites
×
Save as Personal and add changes to this tab that will be seen only by you. Learn more ›
×
You can save this tab as Personal to edit and correct it or add notes. All changes will be seen only by you. Learn more »
launch autoscroll
font size
0
reset
how to read this tab
guitar tuner
edit
Autoscroll
slow
fast
+/-
esc
set tempo
stop
Author
Difficulty
-------------------------------------------------------------------------------
                            Ghosts that we knew - Mumford and Sons
-------------------------------------------------------------------------------
Tabbed by:glm5100
E-mail:glm5100@yahoo.com

this video should be able to help you learn the song
https://www.youtube.com/watch?v=799IuXs1qqo

***********************
| /   slide up        
| \   slide down      
| h   hammer-on       
| p   pull-off        
***********************

Tuning: Standard
Capo 5

Intro
e|---------------------------------------------------------------------------------|
B|---------------------------------------------------------------------------------|
G|-----4-----4------4-------4-------4-------4--------4/7-------7/11-------11/------|
D|---0---0-------0-------0-------0-------0-------0---------0----------0------------|
A|---------------------------------------------------------------------------------|
E|-3-------3---3---3---3---3---3---3---3---3---3---3-----7---7-----10---10---------|

e|---------------------------------------------------------------------------------|
B|---------------------------------------------------------------------------------|
G|-12-------12--------12--------12--------12--------12\11--------11\9--------9\----|
D|------0---------0---------0---------0---------0------------0-----------0---------|
A|---------------------------------------------------------------------------------|
E|---12---12---12---12---12---12---12---12---12---12------10---10------8---8-------|

Verse 1 

e|-------------------------------------------------------------------------|
B|-------------------------------------------------------------------------|
G|---4------4-------4-------4-------4--------4/7-------7/11-------11/------|
D|-------0-------0-------0-------0-------0---------0----------0------------|
A|-------------------------------------------------------------------------|
E|-----3---3---3---3---3---3---3---3---3---3-----7---7-----10---10---------|

e|---------------------------------------------------------------------------------|
B|---------------------------------------------------------------------------------|
G|-12-------12--------12--------12--------12--------12\11--------11\9--------9\----|
D|------0---------0---------0---------0---------0------------0-----------0---------|
A|---------------------------------------------------------------------------------|
E|---12---12---12---12---12---12---12---12---12---12------10---10------8---8-------|repeat 4x

e|--------------------------------------------|
B|--------------------------------------------|
G|---4------4-------4-------4-------4--------4|
D|-------0-------0-------0-------0-------0----|
A|--------------------------------------------|
E|-----3---3---3---3---3---3---3---3---3---3--|

Pre-chorus
e|----------------------------------------------------------------------------|
B|----------------------------------------------------------------------------|
G|--------2-------2-------2-------0-------0-------0-------2-------2-------2---|
D|----1-------1-------1-------2-------2-------2-------1-------1-------1-------|
A|--2---2---2---2---2---2---------------------------2---2---2---2---2---2-----|
E|--------------------------0---0---0---0---0---0-----------------------------|

e|---------------------------------------------------------------------------|
B|---------------------------------------------------------------------------|
G|-------0-------0-------0-------0-------0-------0-------2-------2-------2---|
D|---2-------2-------2-------0-------0-------0-------0-------0-------0-------|
A|---------------------------------------------------------------------------|
E|-0---0---0---0---0---0---3---3---3---3---3---3---2---2---2---2---2---2-----|

e|------------------------------------------------------------|
B|-----------------------0h1-------1p0------------------------|
G|-------0-------0-------------0-------------0-------0--------|
D|---0-------0-------0-------------------0-------0-------0----|
A|------------------------------------------------------------|
E|-3---3---3---3---3---3-----3---3-----3---3---3---3---3---3--|

Chorus(Pluck Strings)
    C     G    D/F#   G     C     G    D/F#
e|-----|-----|-----|-----|-----|-----|-----|
B|--1--|-----|-----|-----|--1--|-----|-----|
G|--0--|--0--|--2--|--0--|--0--|--0--|--2--|
D|-----|--0--|--0--|--0--|-----|--0--|--0--|
A|--3--|-----|-----|-----|--3--|-----|-----|
E|-----|--3--|--2--|--3--|-----|--3--|--2--|
   Em    D/F#   C     G     C    D/F#
e|-----|-----|-----|-----|-----|-----|
B|-----|-----|--1--|-----|--1--|-----|
G|--0--|--2--|--0--|--0--|--0--|--2--|
D|--2--|--0--|-----|--0--|-----|--0--|
A|--2--|-----|--3--|-----|--3--|-----|
E|-----|--2--|-----|--3--|-----|--2--|

e|------------------------------------------------------------------|
B|------------------------------------------------------------------|
G|-------0-------0-------0-------0-------0-------0-------0-------0--|
D|---2-------2-------2-------2-------2-------2-------2-------2------|
A|-2---2---2---2---2---2---2---2---2---2---2---2---2---2---2---2----|
E|------------------------------------------------------------------|

e|------------------------------------------------------------------|
B|-------1-------1-------1-------1-------1-------1-------1-------1--|
G|---0-------0-------0-------0-------0-------0-------0-------0------|
D|------------------------------------------------------------------|
A|-3---3---3---3---3---3---3---3---3---3---3---3---3---3---3---3----|
E|------------------------------------------------------------------|

e|------------------------------------------------------------------|
B|------------------------------------------------------------------|
G|-------0-------0-------0-------0-------0-------0-------0-------0--|
D|---2-------2-------2-------2-------2-------2-------2-------2------|
A|-2---2---2---2---2---2---2---2---2---2---2---2---2---2---2---2----|
E|------------------------------------------------------------------|

e|-------3-------3-------3-------3-------3------3--|
B|---0-------0------0--------0-------0-------0-----|
G|-------------------------------------------------|
D|-------------------------------------------------|
A|-------------------------------------------------|
E|-3---3---3---3---3---3---3---3---3---3---3---3---|

Verse 2 (same as verse 1)
e|-------------------------------------------------------------------------|
B|-------------------------------------------------------------------------|
G|---4------4-------4-------4-------4--------4/7-------7/11-------11/------|
D|-------0-------0-------0-------0-------0---------0----------0------------|
A|-------------------------------------------------------------------------|
E|-----3---3---3---3---3---3---3---3---3---3-----7---7-----10---10---------|

e|---------------------------------------------------------------------------------|
B|---------------------------------------------------------------------------------|
G|-12-------12--------12--------12--------12--------12\11--------11\9--------9\----|
D|------0---------0---------0---------0---------0------------0-----------0---------|
A|---------------------------------------------------------------------------------|
E|---12---12---12---12---12---12---12---12---12---12------10---10------8---8-------|repeat 4x

e|--------------------------------------------|
B|--------------------------------------------|
G|---4------4-------4-------4-------4--------4|
D|-------0-------0-------0-------0-------0----|
A|--------------------------------------------|
E|-----3---3---3---3---3---3---3---3---3---3--|

Chorus(Pluck Strings)
    C     G    D/F#   G     C     G    D/F#
e|-----|-----|-----|-----|-----|-----|-----|
B|--1--|-----|-----|-----|--1--|-----|-----|
G|--0--|--0--|--2--|--0--|--0--|--0--|--2--|
D|-----|--0--|--0--|--0--|-----|--0--|--0--|
A|--3--|-----|-----|-----|--3--|-----|-----|
E|-----|--3--|--2--|--3--|-----|--3--|--2--|
    Em   D/F#   C     G     C    D/F#
e|-----|-----|-----|-----|-----|-----|
B|-----|-----|--1--|-----|--1--|-----|
G|--0--|--2--|--0--|--0--|--0--|--2--|
D|--2--|--0--|-----|--0--|-----|--0--|
A|--2--|-----|--3--|-----|--3--|-----|
E|-----|--2--|-----|--3--|-----|--2--|

Bridge (strummed) 
   Em     C     G
e|-----|-----|--3--|
B|-----|--1--|-----|
G|-----|-----|-----|
D|--2--|--2--|-----|
A|--2--|--3--|--2--|
E|-----|-----|--3--|2x before vocals and 2x with vocals

Chorus(Strummed)
    C     G    D/F#   G     C     G    D/F#
e|-----|--3--|--3--|--3--|-----|--3--|--3--|
B|--1--|-----|--3--|-----|--1--|-----|--3--|
G|-----|-----|--2--|-----|-----|-----|--2--|
D|--2--|-----|-----|-----|--2--|-----|-----|
A|--3--|--2--|--x--|--2--|--3--|--2--|--x--|
E|-----|--3--|--2--|--3--|-----|--3--|--2--|
    Em   D/F#   C     G     C    D/F#
e|-----|--3--|-----|--3--|-----|--3--|
B|-----|--3--|--1--|-----|--1--|--3--|
G|-----|--2--|-----|-----|-----|--2--|
D|--2--|-----|--2--|-----|--2--|-----|
A|--2--|--x--|--3--|--2--|--3--|--x--|
E|-----|--2--|-----|--3--|-----|--2--|

e|--3--|--3--|--3--|--3--|--3--|--3--|--3--|--3--|
B|-----|--1--|-----|--1--|-----|--1--|-----|--1--|
G|-----|-----|-----|-----|-----|-----|-----|-----|
D|-----|--2--|-----|--2--|-----|--2--|-----|--2--|
A|-----|-----|-----|-----|-----|-----|-----|-----|
E|--3--|--3--|--3--|--3--|--3--|--3--|--3--|--3--|


outro(single strum/picking)
e|-----|-----|-----|-----|
B|-----|-----|-----|-----|
G|--2--|-----|--2--|-----|
D|--1--|--2--|--1--|--2--|
A|--2--|--2--|--2--|--2--|
E|-----|-----|-----|-----|

e|----------------------------------------------------|
B|----------------------------------------------------|
G|--------0-------0-------0-------2-------2-------2---|
D|----0-------0-------0-------0-------0-------0-------|
A|----------------------------------------------------|
E|--3---3---3---3---3---3---2---2---2---2---2---2-----|


e|-----------------------------------------------------------------------------|
B|-----------------------0h1-------1p0------------------------0h1-------1p0----|
G|-------0-------0-------------0--------------0-------0-------------0----------|
D|---0-------0-------0--------------------0-------0-------0--------------------|
A|-----------------------------------------------------------------------------|
E|-3---3---3---3---3---3-----3---3------3---3---3---3---3---3-----3---3--------| 

e|------------------------------------------------------------------|
B|-----------------------0h1-------1p0------------------------------|
G|-------0-------0-------------0--------------0-------0-------0-----|
D|---0-------0-------0--------------------0-------0-------0---------|
A|------------------------------------------------------------------|
E|-3---3---3---3---3---3-----3---3------3---3---3---3---3---3-------| 

e|----------------------------------------------------------------------------|
B|----------------------------------------------------------------------------|
G|--------2-------2-------2-------0-------0-------0-------2-------2-------2---|
D|----1-------1-------1-------2-------2-------2-------1-------1-------1-------|
A|--2---2---2---2---2---2---------------------------2---2---2---2---2---2-----|
E|--------------------------0---0---0---0---0---0-----------------------------|

e|---------------------------------------------------------------------------|
B|---------------------------------------------------------------------------|
G|-------0-------0-------0-------0-------0-------0-------2-------2-------2---|
D|---2-------2-------2-------0-------0-------0-------0-------0-------0-------|
A|---------------------------------------------------------------------------|
E|-0---0---0---0---0---0---3---3---3---3---3---3---2---2---2---2---2---2-----|

e|--------------------------------|
B|------------------------1--0----|
G|-------0-------0----------------|
D|---0-------0-------0------------|
A|--------------------------------|
E|-3---3---3---3---3---3--3--3----|

            
            
Suggest correction
Creating personal tab
Creating personal tab
You can edit any tab online and save it as your Personal.

You can edit, replace or remove any tab part or add personal notes – all changes will be seen only by you.

Personal tabs can be accessed anytime from any device, even offline.
Learn more »
Give kudos to tab author, rate the tab!
1 2 3 4 5
comments
print report bad tab
guest
You may want to rate the tab now too:
select rating
Wanna post a correction for this tab? Suggest correction