Oops, an error
Loading. Please wait.

Holland Road Tab

70,019 views 30 this week
9 commentsread comments
1 2 3 4 5
x 50
add to favorites
launch autoscroll
font size
0
reset
how to read this tab
guitar tuner
Autoscroll
slow
fast
+/-
esc
set tempo
stop
Help us to improve Ultimate-Guitar.com Take our survey!
×
Author
Tuning
D A D F# A D
Mumford & Sons
Babel
Holland Road

Open D Tuning

Here is a link to me playing the song
http://youtu.be/eKGxeI7kgQU


[Intro/Verse]

D |-----------------------------------------------------------------------|
A |-----------------------------------------------------------------------|
F#|--8-------8-------8-------1-------0-------0-------0-------5------------|
D |------0-------0-------0-------0-------0-------0-------0-------0--------|
A |-----------------------------------------------------------------------|
D |--9-9---9-9-9---9-9-9---9-2-2---2-0-0---0-0-0---0-0-0---0-5-5---5------|

D |-----------------------------------------------------------------------|
A |-----------------------------------------------------------------------|
F#|--0-------0-------7-------7--------------------------------------------|
D |------0-------0-------0-------0----------------------------------------| 4x
A |-----------------------------------------------------------------------|
D |--0-0---0-0-0---0-7-7---7-7-7---7--------------------------------------|


  "You cut me down..."
D |-----------------------------------------------------------------------|
A |-----------------------------------------------------------------------|
F#|--5---------------0----------------8---------------8------7------------|
D |-----------------------------------------------------------------------| 2x
A |-----------------------------------------------------------------------|
D |--5---------------0----------------9---------------9------7------------|


[Verse 2]

D |---0--------0----0--------0----0------0--------------------------------|
A |---0--------0----0--------0----0------0--------------------------------|
F#|---8--------1----0--------5----0------7--------------------------------|
D |---0--------0----0--------0----0------0--------------------------------| 3x
A |---0--------0----0--------0----0------0--------------------------------|
D |---9--------2----0--------5----0------7--------------------------------|


  "You cut me down..."
D |--0---------------0----------------0---------------0------0------------|
A |--0---------------0----------------0---------------0------0------------|
F#|--5---------------0----------------8---------------8------7------------|
D |--0---------------0----------------0---------------0------0------------|
A |--0---------------0----------------0---------------0------0------------|
D |--5---------------0----------------9---------------9------7------------|

D |--0------0--------0----------------0---------------0------0------------|
A |--0------0--------0----------------0---------------0------0------------|
F#|--5------5--------0----------------8---------------8------7------------|
D |--0------0--------0----------------0---------------0------0------------|
A |--0------0--------0----------------0---------------0------0------------|
D |--5------5--------0----------------9---------------9------7------------|


[Verse 3]

D |---0--------0----0--------0----0------0--------------------------------|
A |---0--------0----0--------0----0------0--------------------------------|
F#|---8--------1----0--------5----0------7--------------------------------|
D |---0--------0----0--------0----0------0--------------------------------| 4x
A |---0--------0----0--------0----0------0--------------------------------|
D |---9--------2----0--------5----0------7--------------------------------|


  "You cut me down..."
D |--0---------------0----------------0---------------0------0------------|
A |--0---------------0----------------0---------------0------0------------|
F#|--5---------------0----------------8---------------8------7------------| 
D |--0---------------0----------------0---------------0------0------------| 2x
A |--0---------------0----------------0---------------0------0------------|
D |--5---------------0----------------9---------------9------7------------|


  "But I still believe..."
D |--0----0--------0----0--------0----0----0----0-------------------------|
A |--0----0--------0----0--------0----0----0----0-------------------------|
F#|--5----0--------5----0--------5----0----7----8-------------------------|
D |--0----0--------0----0--------0----0----0----0-------------------------|
A |--0----0--------0----0--------0----0----0----0-------------------------|
D |--5----0--------5----0--------5----0----7----9-------------------------|


Play the Verse 4x

"But I still believe..." 2x

End on Verse 6x
Suggest correction
comments
print report bad tab
9 comments total. Showing first comments. show 1 bad comment
0 reply
The Liberater 21 Nov 05, 2012 05:43 PM

It sounds like to me that the parts at the end, between "But I still believe..." and what you listed as the part to the Verse, should be the "You cut me down..." part. It lines up with him singing "Har Har Har...".

+1 reply
johnniegf 68 Nov 16, 2012 06:44 AM

@wfb0531: No, I don't think that's right. A Dm tuning on the guitar would make no sense in a song written in D Major.

guest
You may want to rate the tab now too:
select rating
Wanna post a correction for this tab? Suggest correction