Oops, an error
Loading. Please wait.

Home Tab

version 3
version 3

Whole song

10,786 views 9 this week
1 commentread comment
1 2 3 4 5
x 3
add to favorites
launch autoscroll
font size
0
reset
how to read this tab
guitar tuner
Autoscroll
slow
fast
+/-
esc
set tempo
stop
Help us to improve Ultimate-Guitar.com Take our survey!
×
Author
Difficulty
Tuning
Capo
intermediate
D A D F# A D
3rd fret
Tab rating 'intermediate' because of the tuning;
if you are a novice you CAN still learn this easily as long as you can get the tuning.

Note: This is the same tuning as 'The Cave - Mumford and Sons' which I would recommend 
learning as well.

Tuning: Open D - Capo: 3rd Fret

Playing Order:
Verse #1
Bridge
Verse #2
Bridge x2
Chorus x4

Verse: #1
D : ---------------------------------|
A : ---------------------------------|
F#: -0-0-0-0-5-5-5-5-0-0-0-0-0-0-7-7-|
D : ---------------------------------|
A : ---------------------------------|
D : 9-9-9-9-5-5-5-5-0-0-0-0-0-0-7-7--|

D : ---------------------------------|
A : ---------------------------------|
F#: -0-0-0-0-5-5-5-5-0-0-0-0-0-0-0-0-|
D : ---------------------------------|
A : ---------------------------------|
D : 9-9-9-9-5-5-5-5-0-0-0-0-0-0-0-0--|

Bridge:
D : ---------------------------------|
A : ---------------------------------|
F#: -3-3-3-3-5-5-5-5-0-0-0-0-0-0-0-0-|
D : ---------------------------------|
A : ---------------------------------|
D : 4-4-4-4-5-5-5-5-0-0-0-0-7-7-8-8--|

D : ---------------------------------|
A : ---------------------------------|
F#: -0-0-0-0-5-5-5-5-0-0-0-0-0-0-0-0-|
D : ---------------------------------|
A : ---------------------------------|
D : 9-9-9-9-5-5-5-5-0-0-0-0-0-0-0-0--|

Verse: #2
D : ---------------------------------|
A : ---------------------------------|
F#: -8-8-8-8-5-5-5-5-0-0-0-0-0-0-7-7-|
D : ---------------------------------|
A : ---------------------------------|
D : 9-9-9-9-5-5-5-5-0-0-0-0-0-0-7-7--|

D : ---------------------------------|
A : ---------------------------------|
F#: -8-8-8-8-5-5-5-5-0-0-0-0-0-0-0-0-|
D : ---------------------------------|
A : ---------------------------------|
D : 9-9-9-9-5-5-5-5-0-0-0-0-0-0-0-0--|

Chorus:
D : ---------------------------------|
A : ---------------------------------|
F#: -7-7-7-7-7-7-7-7-5-5-5-5-5-5-5-5-|
D : ---------------------------------|
A : ---------------------------------|
D : 7-7-7-7-7-7-7-7-5-5-5-5-5-5-5-5--|

D : ---------------------------------|
A : ---------------------------------|
F#: -0-0-0-0-0-0-0-0-0-0-0-0-0-0-0-0-|
D : ---------------------------------|
A : ---------------------------------|
D : 0-0-0-0-0-0-0-0-0-0-0-0-0-0-0-0--|

Strumming can be implementing into the last two Choruses.
Suggest correction
Give kudos to tab author, rate the tab!
1 2 3 4 5
comments
print report bad tab
1 comment total.
0 reply
Aaric Snook 31 Oct 14, 2011 05:31 PM

Sorry, missed out the second part to the BRIDGE section:

D : ---------------------------------|
A : ---------------------------------|
F#: -0-0-0-0-5-5-5-5-0-0-0-0-0-0-0-0-|
D : ---------------------------------|
A : ---------------------------------|
D : 9-9-9-9-5-5-5-5-0-0-0-0-0-0-0-0--|

guest
You may want to rate the tab now too:
select rating
Wanna post a correction for this tab? Suggest correction